Landing In London

3 Doors Down

 3 Doors Down
Tom: G
		

   Em
|--------------------------------------
|-------1-----0------------------------
|---------------------2h4--0-----------
|---2------2------2----------------------
|--2------2------2-----------------------
|-0------------------------------------



   Em
|--------------------------------------
|-------1-----0------------------------
|------------------------2--2h4--------
|----2---------------------------------
|---2----------------------------------
|-0------------------------------------



   Em
|--------------------------------------
|-------1-----0------------------------
|----------------------2h4--0----------
|---2----------------------------------
|--2-----------------------------------
|-0------------------------------------


First Verse

I woke up today...


   Em                       G                       Am                       Em
|------------------------------------------------------------------------------------------
|--------------------------0--------------------0----1-------------------------------------
|-------0---------------0---------------------2---2-------------0-------0---------------0--
|----2----2----------0-------0--------------2---------------0h2-------2-------------0h2----
|---2-------------------------------2b--0---------------0h2---------2-----2----0h2---------
|-0---------0-----3-------------3---------------------------------0----------0-------------


All I could think about...


   Em                       G                       Am                       Em
|------------------------------------------------------------------------------------------
|--------------------------0----------------------0----1-----------------------------------
|-------0---------------0-----------------------2---2-----------0-------0---------------0--
|----2----2----------0-------0--------------2---------------0h2-------2-------------0h2----
|---2-------------------------------2b--0---------------0h2---------2-----2----0h2---------
|-0---------0-----3-------------3---------------------------------0----------0-------------


If this keeps me away...


   Em                       C                        D                      Em
|---------------------------------------------------2-----3--------------------------------
|--------------------------1-0----------------3--------------------------------------------
|-------0--------0-------0-----2------------2-----2-----2--------------0--------------0----
|-----2---2----2-------2---------0-----0-----------------------------2------------0h2------
|---2----------------3---------------0-----------------------------2-----2----0h2----------
|-0---------0----------------------------------------------------0----------0--------------


You've got to understand...


   Em                       C                        D                      Em
|--------------------------------------------------2-----3----------------------------------
|--------------------------1-0---------------3---------------------------------------------
|-------0--------0-------0-----2-----------2-----2-----2---------------0--------------0----
|-----2---2----2-------2--------0-----0-------------------------------2------------0h2-----
|---2----------------3--------------0-------------------------------2-----2----0h2---------
|-0---------0----------------------------------------------------0----------0--------------


First Chorus
When the night falls...


   Em                  C (strum)          Am (strum)         Em (strum)
|------------------------------------------------------------------------------------------
|---------------------1------------------1-------------------------------------------------
|-------0-------0-----0------------------2----------------0----------0--------------0------
|-----2---2---2-------2------------------2----------------2--------2-----------0h2---------
|---2-----------------3-----------------------------------2------2-----2---0h2-------------
|-0---------0---------------------------------------------0----0---------0-----------------


I'll use your light...


   Em                  C (strum)          Am (strum)         Em (strum)
|----------------------------------------------------------------------------
|---------------------1------------------1-----------------------------------
|-------0-------0-----0------------------2----------------0------------------
|-----2---2---2-------2------------------2----------------2------------------
|---2-----------------3-----------------------------------2------------------
|-0---------0---------------------------------------------0------------------



   Em
|--------------------------------------
|-------1-----0------------------------
|----------------------2h4--0----------
|---2----------------------------------
|--2-----------------------------------
|-0------------------------------------



   Em
|--------------------------------------
|-------1-----0------------------------
|------------------------2--2h4--------
|----2---------------------------------
|---2----------------------------------
|-0------------------------------------



   Em
|--------------------------------------
|-------1-----0------------------------
|---------------------2h4--0-----------
|---2----------------------------------
|--2-----------------------------------
|-0------------------------------------


Second Verse

Well L.A's gettin...


   Em                       G                       Am                       Em
|-----------------------------------------------------------------------------------------
|--------------------------0--------------------0----1------------------------------------
|-------0---------------0---------------------2---2-------------0-------0---------------0-
|----2----2----------0-------0--------------2---------------0h2-------2-------------0h2---
|---2-------------------------------2b--0---------------0h2---------2-----2----0h2--------
|-0---------0-----3-------------3---------------------------------0----------0------------


I keep my head...


   Em                       G                       Am                       Em
|-----------------------------------------------------------------------------------------
|--------------------------0--------------------0----1------------------------------------
|-------0---------------0---------------------2---2-------------0-------0---------------0-
|----2----2----------0-------0--------------2---------------0h2-------2-------------0h2---
|---2-------------------------------2b--0---------------0h2---------2-----2----0h2--------
|-0---------0-----3-------------3---------------------------------0----------0------------


And All these days...
(Strum)
Em   C   Am   Em

I need your love...
(strum)
Em   C   D    Em

When the Night...
(strum)
Em   C   Am   Em

I'll use your light
(strum)
Em   C   D

Solo Intro
Em

Solo
Em   C   Am   Em
Em   C   D    Em



|-------------------------------------------------------------------|
|--------------------7h8/10--10/12------------------------10-10/12--|
|----------------7h9-----------------9-9-9/11-11-11/12-12-----------|
|---------5h7/9-----------------------------------------------------|
|-----5h7-----------------------------------------------------------|
|-------------------------------------------------------------------|



|-------------------------------/12-12-12-12--12-10-8-10-8-7-8-7-5-7-5-3---|
|-----12b-10-----12b-10--10h12------------------------------------------5--|
|--------------------------------------------------------------------------|
|--------------------------------------------------------------------------|
|--------------------------------------------------------------------------|
|--------------------------------------------------------------------------|


And All these days...
(Strum)
Em   C   Am   Em

I need your love...
(strum)
Em   C   D    Em

When the Night...
(strum)
Em   C   Am   Em

I'll use your light
(strum)
Em   C   D

Ending

   Em
|-------------------------------------
|------1-----0------------------------
|---------------------2h4--0----------
|---2---------------------------------
|--2----------------------------------
|-0-----------------------------------



   Em
|--------------------------------------
|-------1-----0------------------------
|------------------------2--2h4--------
|----2---------------------------------
|---2----------------------------------
|-0------------------------------------



   Em
|------------------------------------------------0--
|------1-----0-----------------------------------0--
|--------------------2h4--0--------------0-------0--
|---2----------------------------------2---2-----2--
|--2---------------------------------2-------2---2--
|-0--------------------------------0-------------0--
Texto Colunas
Alterar tom ½ tom ½ tom
afinação acordes na letra esconder tabs mais »

Comentários 8

  • David Rodrigues de oliveira David Rodrigues de oliveira: Postado em 06/03/2014 14:21

    musica muito boa e o solo e foda fica melhor quando uso chorus

  • j_souza j_souza: Postado em 23/04/2012 12:53

    essa musica é d+ merece mesmo uma video aula

  • michaell123 michaell123: Postado em 31/12/2011 18:51

    Amo Essa Musica Ela é Perfeita

  • maximooo maximooo: Postado em 03/06/2011 23:51

    por favor escutem e amem essa musica

  • maximooo maximooo: Postado em 14/05/2011 13:42

    cara foda essa musica boa mesmo
    merecia video aula

  • Felipe Felipe: Postado em 04/03/2011 21:10

    perfeita :*

  • Felipe Felipe: Postado em 04/03/2011 18:15

    acho ate melhor que todas as outras

  • Felipe Felipe: Postado em 04/03/2011 18:04

    lol essa musica e muito boa

Composição: Brad Arnold / Chris Henderson / D. Hodges / Massimiliano Iovine / Matt Roberts / Newton Ferreira Mendonca / Rich Harrison / Richard Cocciante / Víctor M. Ruíz / Walmir Borges
Esse não é o compositor? Avise-nos.
Contribuição: Pivomar Correções: xxlukasbxx , Kbeça e mais 4 »
  1. Domingo de Manhã - Marcos e Belutti Manteve-se 102.105 exibições
  2. Logo Eu - Jorge e Mateus Manteve-se 47.110 exibições
  3. Não Vai Voltar - Onze:20 Manteve-se 43.626 exibições
  4. Maus Bocados - Cristiano Araújo Manteve-se 41.276 exibições
  5. Pra Você - Onze:20 Manteve-se 40.811 exibições
  6. Recaídas - Henrique e Juliano Manteve-se 40.053 exibições
  7. Só Os Loucos Sabem - Charlie Brown Jr. Manteve-se 32.225 exibições
  8. Aonde Quer Que Eu Vá - Os Paralamas do Sucesso Manteve-se 32.124 exibições
  9. É Preciso Saber Viver - Titãs Manteve-se 30.368 exibições
  10. Pais e Filhos - Legião Urbana Manteve-se 30.068 exibições
  1. Jorge e Mateus- Manteve-se 292.826 exibições
  2. Legião Urbana- Manteve-se 218.900 exibições
  3. Charlie Brown Jr.- Manteve-se 152.408 exibições
  4. Marcos e Belutti- Manteve-se 125.986 exibições
  5. Fernandinho- Manteve-se 124.613 exibições
  6. Henrique e Juliano- Manteve-se 117.899 exibições
  7. Bruno e Marrone- Manteve-se 108.690 exibições
  8. Onze:20- Manteve-se 108.022 exibições
  9. Luan Santana- Manteve-se 94.838 exibições
  10. Thalles Roberto- Manteve-se 93.559 exibições
Exibir acordes »

Cifras e tabs

Fórum Cifra Club

Aprenda

Cifra Club News

Mais Serviços Cifra Club ID

Studio Sol

©1996 - 2014 Cifra Club · o primeiro, maior e mais acessado do Brasil · 336 mil músicas · 6.2 milhões pessoas cadastradas

publicidade
fechar