From Yesterday

30 Seconds To Mars

 30 Seconds To Mars Compositor: Arthur Stiven
Tom: A#
		
(intro) D#5 D#5/D

(riff)

E |---------------------------------------------|
B |---------------------------------------------|
G |---------------------------------------------|
D |---8---8---8---8---8-----8---8---8---8---8---|  (2x)
A |-66--66--66--66--66--6-55--55--55--55--55--5-|
E |---------------------------------------------|


D#
He's a stranger to some
And a vision to none
Gm
He can never get enough,
Get enough of the one
D#
For a fortune he'd quit
But it's hard to admit
Gm
How it ends and begins
               D#
On his face is a map of the world
                Gm
(a map of the world)
                              D#
On his face is a map of the world
                 Gm
(a map of the world)

Bb                      F
From yesterday, it's coming!
Gm                    D#
From yesterday, the fear!
Bb                     F
From yesterday, it calls him
D#                                      F
But he doesn't want to read the message here

D#
On a mountain, he sits, not of gold, but of shit through the blood
Gm
He can learn, see the life that it turn
D#
From the council of one
                              Gm
He'll decide when he's done with the inoccent
                             D#
On his face is a map of the world
                Gm
(A map of the world)
                             D#
On his face is a map of the world
                Gm
(a map of the world)

Bb                      F
From yesterday, it's coming!
Gm                   D#
From yesterday, the fear!
Bb                    F
From yesterday, it calls him
D#                                      F
But he doesn't want to read the message here
D#                                      F
But he doesn't want to read the message here
D#                                      F
But he doesn't want to read the message here


E |-----------------------------------------|
B |-----------------------------------------|
G |------7-7h8-8---7-7-7-7h8p7--------------|
D |-5-5-------------------------8----8--7---|
A |-5-5--5-5h6-6---5-5-5-5h6p5--8----8--7---|
E |-5-5-------------------------8----8--7---|


On his face is a map of the world

Bb                     F
From yesterday, it's coming!
Gm                   D#
From yesterday, the fear!
Bb                   F
From yesterday, it calls him
D#                                      F
But he doesn't want to read the message here
Bb
From yesterday,
F
From yesterday,
Gm                   D#
From yesterday, the fear
Bb
From yesterday,
F
From yesterday
D#                                      F
But he doesn't want to read the message here
D#                                      F
But he doesn't want to read the message here
D#                                      F
But he doesn't want to read the message here


E |-------------------------------|
B |-------------------------------|
G |------7-7h8-8---7-7-7-7h8p7----|
D |-5-5-------------------------8-|
A |-5-5--5-5h6-6---5-5-5-5h6p5--8-|
E |-5-5-------------------------8-|

Comentários 1

  • baah_rock baah_rock: Postado em 09/10/2011 22:39

    Facil de tirar ^^

Composição: Amoo / Jordan Seucof / Shaunna Hall
Esse não é o compositor? Avise-nos.
Contribuição: danilo_factor_8 Correções: Del Penho , Agudelo e mais 3 »
Exibir acordes »
publicidade
fechar