Pra Você Dar o Nome

5 à Seco

 5 à Seco
Tom: E
		
Intro 4x: E7M  E6(11+)

Primeira Estrofe:

 E7M         E6(11+)
Deixa pra lá
E7M                E6(11+)
    Que de nada adianta
               E7M        E6(11+)
Esse papo de agora não dá
E7M                     E6(11+)
    Que eu te quero é agora e não posso
     C7M(6/11+)
Nem vou te esperar

Que esse lance de um tempo
             B7M/F#          G#m7(9)
Nunca funcionou pra nós dois

Segunda Estrofe:

 E7M           E6(11+)
Sempre que der
E7M                    E6(11+)
    Mande um sinal de vida
             E7M          E6(11+)
De onde estiver dessa vez
E7M                     E6(11+)
    Qualquer coisa que faça eu pensar
       C7M(6/11+)
Que você está bem

Ou deitada nos braços
                 B7M/F#
De um outro qualquer, que é melhor

Terceira Estrofe:

 A6(9)
Do que sofrer

De saudade de mim
                 G#m7(11)
Como eu tô de você, pode crer
                                          G7M(11+)
Que essa dor eu não quero pra ninguém no mundo
  F#4             B9  C#7(4)  D7M(6)  B9/D#
Imagina só pra você

Quarta Estrofe:

 E6(9)
Quero é te ver

Dando volta no mundo
                 G#m7(11)
Indo atrás de você, sabe o quê
                                  G7M(11+)
Rezando pra um dia você se encontrar e perceber
G#m7(11)                       F#11/A#
         Que o que falta em você
E7M        E6(11+) (4x)
    Sou eu

Base Solo:

E7M  E6(11+) (4x)

C7M(6/11+)  B7M/F#

A6(9)  G#m7(11)  G7M(11+)  G#m7(11)  F#11/A#

E7M  E6(11+) (4x)

(repete as 4 estrofe)

Tab Violão:

Intro 4x:


   E7M          E6(11+)
E|------------------------------------------|
B|-------0------------0---------------------|
G|-----8------------6-----------------------|
D|---6-------6----8-------8-----------------|
A|-7-------7----7-------7-------------------|
E|------------------------------------------|


Primeira Estrofe:

Parte 1 (4x)


   E7M          E6(11+)
E|------------------------------------------|
B|-------0------------0---------------------|
G|-----8------------6-----------------------|
D|---6-------6----8-------8-----------------|
A|-7-------7----7-------7-------------------|
E|------------------------------------------|


Parte 2 (2x)


   C7M(6/11+)
E|------------------------------------------|
B|-------0------------0---------------------|
G|-----2------------2-----------------------|
D|---4-------4----4-------4-----------------|
A|-3-------3----3-------3-------------------|
E|------------------------------------------|


Parte 3


   B7M/F#
E|------------------------------------------|
B|-------0------------0---------------------|
G|-----3------------3-----------------------|
D|---1-------1----1-------1-----------------|
A|------------------------------------------|
E|-2-------2----2-------2-------------------|


Parte 4


   B7M/F#          G#m7(9)
E|------------------------------------------|
B|-------0-----------0----------------------|
G|-----3-------------3----------------------|
D|---1-------1-------4----------------------|
A|------------------------------------------|
E|-2-------2----2--4------------------------|


Segunda Estrofe:

Parte 1 (4x)


   E7M          E6(11+)
E|------------------------------------------|
B|-------0------------0---------------------|
G|-----8------------6-----------------------|
D|---6-------6----8-------8-----------------|
A|-7-------7----7-------7-------------------|
E|------------------------------------------|


Parte 2 (2x)


   C7M(6/11+)
E|------------------------------------------|
B|-------0------------0---------------------|
G|-----2------------2-----------------------|
D|---4-------4----4-------4-----------------|
A|-3-------3----3-------3-------------------|
E|------------------------------------------|


Parte 3 (2x)


   B7M/F#
E|------------------------------------------|
B|-------0------------0---------------------|
G|-----3------------3-----------------------|
D|---1-------1----1-------1-----------------|
A|------------------------------------------|
E|-2-------2----2-------2-------------------|


Terceira Estrofe:

Parte 1 (2x)


   A6(9)
E|------------------------------------------|
B|-------0------------0---------------------|
G|-----6------------6-----------------------|
D|---4-------4----4-------4-----------------|
A|------------------------------------------|
E|-5-------5----5-------5-------------------|


Parte 2 (2x)


   G#m7(11)
E|------------------------------------------|
B|-------0------------0---------------------|
G|-----6------------6-----------------------|
D|---4-------4----4-------4-----------------|
A|------------------------------------------|
E|-4-------4----4-------4-------------------|


Parte 3


   G7M(11+)
E|------------------------------------------|
B|-------0------------0---------------------|
G|-----6------------6-----------------------|
D|---4-------4----4-------4-----------------|
A|------------------------------------------|
E|-3-------3----3-------3-------------------|


Parte 4


   F#4
E|------------------------------------------|
B|-------0------------0---------------------|
G|-----6------------6-----------------------|
D|---4-------4----4-------4-----------------|
A|------------------------------------------|
E|-2-------2----2-------2-------------------|


Parte 5


   B9           C#7(4)
E|------------------------------------------|
B|-------0------------0---------------------|
G|-----6------------6-----------------------|
D|---4-------4----4-------4-----------------|
A|-2-------2----4-------4-------------------|
E|------------------------------------------|


Parte 6


   D7M(6)       B9/D#
E|------------------------------------------|
B|-------0------------0---------------------|
G|-----6------------6-----------------------|
D|---4-------4----4-------4-----------------|
A|-5-------5----6-------6-------------------|
E|------------------------------------------|


Quarta Estrofe:

Parte 1 (2x)


   E6(9)
E|------------------------------------------|
B|-------0------------0---------------------|
G|-----6------------6-----------------------|
D|---4-------4----4-------4-----------------|
A|-7-------7----7-------7-------------------|
E|------------------------------------------|


Parte 2


   G#m7(11)
E|------------------------------------------|
B|-------0------------0---------------------|
G|-----6------------6-----------------------|
D|---4-------4----4-------4-----------------|
A|------------------------------------------|
E|-4-------4----4-------4-------------------|


Parte 3


   G7M(11+)
E|------------------------------------------|
B|-------0------------0---------------------|
G|-----6------------6-----------------------|
D|---4-------4----4-------4-----------------|
A|------------------------------------------|
E|-3-------3----3-------3-------------------|


Parte 4


   G#m7(11)     F#11/A#
E|------------------------------------------|
B|-------0------------0---------------------|
G|-----6------------6-----------------------|
D|---4-------4----4-------4-----------------|
A|------------------------------------------|
E|-4-------4----6-------6-------------------|


Parte 5 4(x)


   E7M          E6(11+)
E|------------------------------------------|
B|-------0------------0---------------------|
G|-----8------------6-----------------------|
D|---6-------6----8-------8-----------------|
A|-7-------7----7-------7-------------------|
E|------------------------------------------|


Base Solo:

Parte 1 (4x)


   E7M          E6(11+)
E|------------------------------------------|
B|-------0------------0---------------------|
G|-----8------------6-----------------------|
D|---6-------6----8-------8-----------------|
A|-7-------7----7-------7-------------------|
E|------------------------------------------|


Parte 2 (2x)


   C7M(6/11+)
E|------------------------------------------|
B|-------0------------0---------------------|
G|-----2------------2-----------------------|
D|---4-------4----4-------4-----------------|
A|-3-------3----3-------3-------------------|
E|------------------------------------------|


Parte 3 (2x)


   B7M/F#
E|------------------------------------------|
B|-------0------------0---------------------|
G|-----3------------3-----------------------|
D|---1-------1----1-------1-----------------|
A|------------------------------------------|
E|-2-------2----2-------2-------------------|


Parte 4 (2x)


   A6(9)
E|------------------------------------------|
B|-------0------------0---------------------|
G|-----6------------6-----------------------|
D|---4-------4----4-------4-----------------|
A|------------------------------------------|
E|-5-------5----5-------5-------------------|


Parte 5 (2x)


   G#m7(11)
E|------------------------------------------|
B|-------0------------0---------------------|
G|-----6------------6-----------------------|
D|---4-------4----4-------4-----------------|
A|------------------------------------------|
E|-4-------4----4-------4-------------------|


Parte 6


   G7M(11+)
E|------------------------------------------|
B|-------0------------0---------------------|
G|-----6------------6-----------------------|
D|---4-------4----4-------4-----------------|
A|------------------------------------------|
E|-3-------3----3-------3-------------------|


Parte 7


  G#m7(11)     F#11/A#
E|------------------------------------------|
B|-------0------------0---------------------|
G|-----6------------6-----------------------|
D|---4-------4----4-------4-----------------|
A|------------------------------------------|
E|-4-------4----6-------6-------------------|


Parte 8 (4x)


   E7M          E6(11+)
E|------------------------------------------|
B|-------0------------0---------------------|
G|-----8------------6-----------------------|
D|---6-------6----8-------8-----------------|
A|-7-------7----7-------7-------------------|
E|------------------------------------------|


(repete as 4 estrofes)

Tab Guitarra:

Intro:


E|----------------------------------------------------|
B|-12-11-7-11--12-11-7-11--12-11-7-11--12-11-7-11--12-|
G|----------------------------------------------------|
D|-13-11-8-11--13-11-7-11--13-11-8-11--13-11-8-11--13-|
A|----------------------------------------------------|
E|----------------------------------------------------|


Primeira Estrofe:


E|--------------13------------------------------------|
B|-5-7-8-10-11--11------------------------------------|
G|----------------------------------------------------|
D|-5-7-9-11-11----------------------------------------|
A|----------------------------------------------------|
E|----------------------------------------------------|


Segunda Estrofe:

Parte 1


E|----------------------------------------------------|
B|-12-11-7-11--12-11-7-11-----------------------------|
G|----------------------------------------------------|
D|-13-11-8-11--13-11-7-11-----------------------------|
A|----------------------------------------------------|
E|----------------------------------------------------|


Parte 2


E|--------------13------------------------------------|
B|-5-7-8-10-11--11------------------------------------|
G|----------------------------------------------------|
D|-5-7-9-11-11----------------------------------------|
A|----------------------------------------------------|
E|----------------------------------------------------|


Terceira Estrofe:

Parte 1


E|-11----14----14----11----14-------------------------|
B|----12----12----12----12----12----------------------|
G|-14----14----14----14----14-------------------------|
D|----------------------------------------------------|
A|----------------------------------------------------|
E|----------------------------------------------------|


Parte 2


E|-11----14----14----11----14-------------------------|
B|----12----12----12----12----12----------------------|
G|-13----13----13----13----13-------------------------|
D|----------------------------------------------------|
A|----------------------------------------------------|
E|----------------------------------------------------|


Parte 3


E|-10----14----14-----9----14-------------------------|
B|----12----12----12----12----12----------------------|
G|-12----12----12----11----11-------------------------|
D|----------------------------------------------------|
A|----------------------------------------------------|
E|----------------------------------------------------|


Parte 4


E|--9----14-----9----14-----9-------------------------|
B|----12----12----12----12----12----------------------|
G|-11----11----11----11----11-------------------------|
D|----------------------------------------------------|
A|----------------------------------------------------|
E|----------------------------------------------------|


Quarta Estrofe:

Parte 1


E|-11----14----14----11----14-------------------------|
B|----12----12----12----12----12----------------------|
G|--9-----9-----9-----9-----9-------------------------|
D|----------------------------------------------------|
A|----------------------------------------------------|
E|----------------------------------------------------|


Parte 2


E|-11----14----14----11----14-------------------------|
B|----12----12----12----12----12----------------------|
G|-13----13----13----13----13-------------------------|
D|----------------------------------------------------|
A|----------------------------------------------------|
E|----------------------------------------------------|


Parte 3


E|-10----14----14-----9----14-------------------------|
B|----12----12----12----12----------------------------|
G|-12----12----12----11----11-------------------------|
D|----------------------------------------------------|
A|----------------------------------------------------|
E|----------------------------------------------------|


Parte 4


E|----------------------------------------------------|
B|-12-11-7-9-11-12------------------------------------|
G|----------------------------------------------------|
D|-13-11-8-9-11-13------------------------------------|
A|----------------------------------------------------|
E|----------------------------------------------------|


Solo:

Parte 1


E|----------------------------------------------------|
B|----------------------------------------------------|
G|-11-11-8--8-9-11-11-11/13-11-11-8-------------------|
D|----------------------------------------------------|
A|--9--9-6--6-7--9--9--9/11--9--9-6-------------------|
E|----------------------------------------------------|

Parte 2


E|----------------------------------------------------|
B|----------------------------------------------------|
G|-8-9-11-11-11-12-12-9-------------------------------|
D|----------------------------------------------------|
A|-6-7--9--9--9-10-10-7-------------------------------|
E|----------------------------------------------------|


Parte 3


E|----------------------------------------------------|
B|----------------------------------------------------|
G|-9-9-9-9-9-8-11-3-----------------------------------|
D|----------------------------------------------------|
A|-7-7-7-7-7-6--9-1-----------------------------------|
E|----------------------------------------------------|


Parte 4


E|----------------------------------------------------|
B|----------------------------------------------------|
G|-4-4/8--4-6-8-6-4-4-4-------------------------------|
D|----------------------4-----------------------------|
A|-2-2/6--2-4-6-4-2-2-2-------------------------------|
E|----------------------2-----------------------------|


Parte 5


E|----------------------------------------------------|
B|----------------------------------------------------|
G|-4-6-6/8-6-4----------------------------------------|
D|-------------5-7-9-9/11-8---------------------------|
A|-2-4-4/6-4-2----------------------------------------|
E|-------------3-5-7-7/9--6---------------------------|


Parte 6


E|----------------------------------------------------|
B|-12-11-7-9-11-12---12-11-7-9------------------------|
G|----------------------------------------------------|
D|-13-11-8-9-11-13---13-11-8-9------------------------|
A|----------------------------------------------------|
E|----------------------------------------------------|


(repete as 4 estrofes)

Comentários 6

  • mersinho mersinho: Postado em 10/07/2014 14:21

    Musica boa de tocar

  • luciano.ferreirajunior luciano.ferreirajunior: Postado em 26/06/2014 15:46

    isso ae nao precisa de video aula nao cade a aula do farofa carioca rabisca robson

  • Guilherme Guilherme: Postado em 04/06/2014 18:41

    Música ótima! Mas não está de acordo com o que eles tocam.. poderiam fazer uma video aula!

  • Pedro Pedro : Postado em 16/03/2014 11:17

    Cade a VÍDEO AULA????

  • RafiusKs RafiusKs: Postado em 18/11/2013 15:50

    Existe uma tablatura melhor do que essa? Alguem sabe me informar? Ta errado!

  • lasc07 lasc07: Postado em 15/09/2012 09:23

    A tablatura está diferente de como eles realmente tocam. Mas a música é muito boa. Parabéns !

Composição: Tó Brandileone
Esse não é o compositor? Avise-nos.
Contribuição: PedroCatunda Correções: Leo Eymard e mais 2 »
Exibir acordes »
publicidade
fechar