Pra Você Dar o Nome

5 à Seco

 5 à Seco Compositor: Tó Brandileone
Tom: G
		
Intro:

Violao 8x:
E|---------------------------------------|
B|---------------0--------------0--------|
G|------------8-------------6------------|
D|---------6------------8----------------|
A|----- 7----------- 7-------------------|
E|-------------------------------------|

Guitarra 4x:

E|---------------------------------------|---------------------------------|
B|--12~---11~----7~----11~---12~---------|--12~---11~----7~----11~---12~-- |
G|---------------------------------------| ------------------------------- |
D|--13~---11~----8~----11~---13~---------|--13~---11~----8~----11~---13~---|
A|---------------------------------------|---------------------------------|
E|---------------------------------------|---------------------------------|


Verso:
Deixa pra lá...
E|---------------------------------------|
B|---------------0--------------0--------|
G|------------8-------------6------------|
D|---------6------------8----------------|
A|----- 7----------- 7-------------------|
E|-------------------------------------|

Guitarra:

E|--------|
B|--12~---|
G|--------|
D|--13~---|
A|--------|
E|--------|


...nem vou te esperar			...que esse lance
Violao:

E|----------------------------------------|----------------------------------------|
B|---------------0--------------0---------|---------------0--------------0---------|
G|------------2-------------2-------------|------------2-------------2-------------|
D|--------4-------------4-----------------|--------4-------------4-----------------|
A|----3-------------3---------------------|----3-------------3---------------------|
E|----------------------------------------|----------------------------------------|


Guitarra:

E|--------------------------------------|--------------------------------------|
B|-------5~----------7~-----------------|-------8~------------10~--------------|
G|--------------------------------------|--------------------------------------|
D|-------5~----------7~-----------------|-------9~------------11~--------------|
A|--------------------------------------|--------------------------------------|
E|--------------------------------------|--------------------------------------|


... funcionou pra nos dois
Violao:

E|----------------------------------------|-----------------------------------------|
B|---------------0--------------0---------|----------------0------------------0-----|
G|------------3-------------3-------------|-------------3------------3-------3------|
D|--------1-------------1-----------------|----------1------------1----------4------|
A|----------------------------------------|-----------------------------------------|
E|----2--------------2--------------------|------2--------------2------------4------|


Guitarra:

E|---------------------------------------|--------------12~----------------------|
B|------11~------------------------------|----------13~--------------------------|
G|---------------------------------------|------14~------------------------------|
D|------11~------------------------------|---------------------------------------|
A|---------------------------------------|---------------------------------------|
E|---------------------------------------|---------------------------------------|


Sempre que der...
Violao 4x:

E|----------------------------------------|
B|---------------0--------------0---------|
G|------------8-------------6-------------|
D|---------6------------8-----------------|
A|----------------------------------------|
E|----0--------------0--------------------|


Guitarra:

E|-------------------|------------------|------------------|----------------|
B|----12~------11~---|--7~-----11~------|---12~-----11~----|--7~----11~-----|
G|-------------------|------------------| -----------------|----------------|
D|----13~------11~---|--8~-----11~------|---13~-----11~----|--8~----11~-----|
A|-------------------|------------------|------------------|----------------|
E|-------------------|------------------|------------------|----------------|


...que você está bem			...ou deitada nos braços
Violao:

E|----------------------------------------|----------------------------------------|
B|---------------0--------------0---------|---------------0--------------0---------|
G|------------2-------------2-------------|------------2-------------2-------------|
D|--------4-------------4-----------------|--------4-------------4-----------------|
A|----3-------------3---------------------|----3-------------3---------------------|
E|----------------------------------------|----------------------------------------|


Guitarra:

E|--------------------------------------|--------------------------------------|
B|-------5~----------7~-----------------|-------8~------------10~--------------|
G|--------------------------------------|--------------------------------------|
D|-------5~----------7~-----------------|-------9~------------11~--------------|
A|--------------------------------------|--------------------------------------|
E|--------------------------------------|--------------------------------------|


... qualquer, que é melhor
Violao:

E|----------------------------------------|------------------------------------------|
B|---------------0--------------0---------|----------------0------------0------------|
G|------------3-------------3-------------|-------------3------------3---------------|
D|--------1-------------1-----------------|----------1------------1------------------|
A|----------------------------------------|------------------------------------------|
E|----2--------------2--------------------|------2--------------2--------------------|


Guitarra:

E|---------------------------------------|--------------12~----------------------|
B|------11~------------------------------|----------13~--------------------------|
G|---------------------------------------|------14~------------------------------|
D|------11~------------------------------|---------------------------------------|
A|---------------------------------------|---------------------------------------|
E|---------------------------------------|---------------------------------------|


Do que sofrer...
Violão:

E|----------------------------------------|----------------------------------------|
B|---------------0--------------0---------|---------------0--------------0---------|
G|-----------6--------------6-------------|-----------6--------------6-------------|
D|--------4-------------4-----------------|--------4-------------4-----------------|
A|----------------------------------------|----------------------------------------|
E|----5--------------5--------------------|----5--------------5--------------------|


Guitarra:

E|----11----------14------------14--------|----11-------------14---------|
B|----------12-----------12------------12- |----------12-------------12---|
G|-----14---------14------------14---- ----|----14-------------14---------|
D|-----------------------------------------|------------------------------|
A|-----------------------------------------|------------------------------|
E|-----------------------------------------|------------------------------|


...você, pode crer
Violão:

E|----------------------------------------|----------------------------------------|
B|---------------0--------------0---------|---------------0--------------0---------|
G|-----------6--------------6-------------|-----------6--------------6-------------|
D|--------4-------------4-----------------|--------4-------------4-----------------|
A|----------------------------------------|----------------------------------------|
E|-----4-------------4--------------------|----4--------------4--------------------|


Guitarra:

E|----11----------14------------14--------|----11-------------14-------|
B|--------12-----------12------------12---|--------12-------------12---|
G|----13----------13------------13--------|----13-------------13-------|
D|----------------------------------------|----------------------------|
A|----------------------------------------|----------------------------|
E|----------------------------------------|----------------------------|


...mundo, imagina só
Violão:

E|----------------------------------------|----------------------------------------|
B|---------------0--------------0---------|---------------0--------------0---------|
G|-----------6--------------6-------------|-----------6--------------6-------------|
D|--------4-------------4-----------------|--------4-------------4-----------------|
A|----------------------------------------|----------------------------------------|
E|-----3-------------3--------------------|----2--------------2--------------------|


Guitarra:

E|----10----------14------------14--------|-----9-------------14---------|
B|--------12-----------12-----------12----|--------12-------------12-----|
G|----12----------12------------12--------|-----11-------------11--------|
D|----------------------------------------|------------------------------|
A|----------------------------------------|------------------------------|
E|----------------------------------------|------------------------------|


...você
Violão:

E|----------------------------------------|----------------------------------------|
B|---------------0--------------0---------|---------------0--------------0---------|
G|-----------6--------------6-------------|-----------6--------------6-------------|
D|--------4-------------4-----------------|--------4-------------4-----------------|
A|-----2-------------4--------------------|-----5-------------6--------------------|
E|----------------------------------------|----------------------------------------|


Guitarra:

E|--9------------14-------------9----------|--14-----------9--------|
B|-----12------------12-----------12-------|------12-----------12---|
G|--11-----------11--- ---------11---------|--11-----------11--- ---|
D|-----------------------------------------|------------------------|
A|-----------------------------------------|------------------------|
E|-----------------------------------------|------------------------|


Quero é te ver...
Violão:

E|----------------------------------------|----------------------------------------|
B|---------------0--------------0---------|---------------0--------------0---------|
G|-----------8--------------8-------------|-----------8--------------8-------------|
D|--------6-------------6-----------------|--------6-------------6-----------------|
A|----------------------------------------|----------------------------------------|
E|----0--------------0--------------------|----0--------------0--------------------|


Guitarra:

E|----11----------14------------14--------|----11-------------14---------|
B|----------12-----------12-----------12-- |----------12-------------12---|
G|-----9-------------9-------------9-------|----9---------------9---------|
D|-----------------------------------------|------------------------------|
A|-----------------------------------------|------------------------------|
E|-----------------------------------------|------------------------------|


...você, sabe o que
Violão:

E|----------------------------------------|----------------------------------------|
B|---------------0--------------0---------|---------------0--------------0---------|
G|-----------6--------------6-------------|-----------6--------------6-------------|
D|--------4-------------4-----------------|--------4-------------4-----------------|
A|----------------------------------------|----------------------------------------|
E|-----4-------------4--------------------|----4--------------4--------------------|


Guitarra:

E|----11----------14------------14-------|----11-------------14------|
B|--------12----------12------------12---|--------12------------12---|
G|----13----------13------------13-------|----13-------------13------|
D|---------------------------------------|---------------------------|
A|---------------------------------------|---------------------------|
E|---------------------------------------|---------------------------|


...encontrar, e perceber
Violão:

E|----------------------------------------|----------------------------------------|
B|---------------0--------------0---------|---------------0--------------0---------|
G|-----------6--------------6-------------|-----------6--------------6-------------|
D|--------4-------------4-----------------|--------4-------------4-----------------|
A|----------------------------------------|----------------------------------------|
E|-----3-------------3--------------------|----4--------------6--------------------|


Guitarra:

E|----10----------14------------14--------|-----9-------------14-----------|
B|--------12-----------12-----------12----|----------12-------------12-----|
G|----12----------12------------12--------|-----11-------------11----------|
D|----------------------------------------|--------------------------------|
A|----------------------------------------|--------------------------------|
E|----------------------------------------|--------------------------------|


...sou eu
Violão 4x:

E|----------------------------------------|
B|---------------0--------------0---------|
G|------------8-------------6-------------|
D|---------6------------8-----------------|
A|----------------------------------------|
E|----0--------------0--------------------|


Guitarra:

E|----------------------------------------|-------------------------|----------------------|
B|----------------------------------------|---------12~---11~-----7-|-9~----11~----12~-----|
G|----------------------------------------|-------------------------|----------------------|
D|----------------------------------------|---------13~---11~-----8-|-9~----11~---13~------|
A|----------------------------------------|-------------------------|----------------------|
E|----------------------------------------|-------------------------|----------------------|


Ponte:
Le leia...
Violao 4x:

E|----------------------------------------|
B|---------------0--------------0---------|
G|------------8-------------6-------------|
D|---------6------------8-----------------|
A|----------------------------------------|
E|----0--------------0--------------------|


Guitarra:

E|--------------------------|----------------------------|----------------|---------------------------|
B|--------------------------|----------------------------|----------------|---------------------------|
G|----11---11----------8----|---8---9----11---11----13---|---11--11----8--|--8---9----11---11----11---|
D|--------------------------|----------------------------|----------------|---------------------------|
A|----9----9-----------6----|---6---7----9-----9----11---|----9---9----6--|--6---7----9-----9-----9---|
E|--------------------------|----------------------------|----------------|---------------------------|


Violao:

E|----------------------------------------|----------------------------------------|
B|---------------0--------------0---------|---------------0--------------0---------|
G|------------2-------------2-------------|------------2-------------2-------------|
D|--------4-------------4-----------------|--------4-------------4-----------------|
A|----3-------------3---------------------|----3-------------3---------------------|
E|----------------------------------------|----------------------------------------|


Guitarra:

E|-------------------------------------|---------------------------------------|
B|-------------------------------------|---------------------------------------|
G|------12-----12----------9-----------|-----9------9------9------9-------9----|
D|-------------------------------------|---------------------------------------|
A|------10-----10----------7-----------|-----7------7------7------7-------7----|
E|-------------------------------------|---------------------------------------|


Violao:

E|----------------------------------------|--------------------------------------|
B|---------------0--------------0---------|----------------0--------------0------|
G|------------3-------------3-------------|-------------3------------3-----------|
D|--------1-------------1-----------------|----------1------------1--------------|
A|----------------------------------------|--------------------------------------|
E|----2--------------2--------------------|------2--------------2----------------|


Guitarra:

E|---------------------------|----------------------------------|
B|---------------------------|----------------------------------|
G|----8--11-----3------------|----------------------------------|
D|---------------------------|----------------------------------|
A|----6--9------1------------|----------------------------------|
E|---------------------------|----------------------------------|


La laie
Violao:

E|----------------------------------------|----------------------------------------|
B|---------------0--------------0---------|---------------0--------------0---------|
G|-----------6--------------6-------------|-----------6--------------6-------------|
D|--------4-------------4-----------------|--------4-------------4-----------------|
A|----------------------------------------|----------------------------------------|
E|----5--------------5--------------------|----5--------------5--------------------|


Guitarra:

E|--------------------------------------|---------------------------------------|
B|--------------------------------------|---------------------------------------|
G|-------4-------4----------8-----------|-----4------6------8------6-------4----|
D|--------------------------------------|---------------------------------------|
A|-------2-------2----------6-----------|-----2------4------6------4-------2----|
E|--------------------------------------|---------------------------------------|


Violao:

E|----------------------------------------|----------------------------------------|
B|---------------0--------------0---------|---------------0--------------0---------|
G|-----------6--------------6-------------|-----------6--------------6-------------|
D|--------4-------------4-----------------|--------4-------------4-----------------|
A|----------------------------------------|----------------------------------------|
E|----4-------------4---------------------|----4--------------4--------------------|


Guitarra:

E|---------------------------------------|---------------------------------------|
B|---------------------------------------|---------------------------------------|
G|-------4-------4-----------------------|-----4------6------8------6-------4----|
D|------------------------------4--------|---------------------------------------|
A|-------2-------2-----------------------|-----2------4------6------4-------2----|
E|------------------------------2--------|---------------------------------------|


Violao:

E|----------------------------------------|----------------------------------------|
B|---------------0--------------0---------|---------------0--------------0---------|
G|-----------6--------------6-------------|-----------6--------------6-------------|
D|--------4-------------4-----------------|--------4-------------4-----------------|
A|----------------------------------------|------2-------------4-------------------|
E|----3-------------5---------------------|----------------------------------------|


Guitarra:

E|---------------------------------------|-------------------------------------------|
B|---------------------------------------|-------------------------------------------|
G|---------------------------------------|-------------------------------------------|
D|--------5---------------7--------------|------------4---------------6--------------|
A|---------------------------------------|---------------------------------------------|
E|---------3---------------5-------------|------------2---------------4--------------|


Violao 4x:

E|----------------------------------------|
B|---------------0--------------0---------|
G|------------8-------------6-------------|
D|---------6------------8-----------------|
A|----------------------------------------|
E|----0--------------0--------------------|


Guitarra:

E|-----------------------------------------|-------------------------|----------------------|
B|-----------------------------------------|---------12~---11~-----7-|-9~----11~----12~-----|
G|-------3---------------------------------|-------------------------|----------------------|
D|-----------------------------------------|---------13~---11~-----8-|-9~----11~---13~------|
A|-------1---------------------------------|-------------------------|----------------------|
E|-----------------------------------------|-------------------------|----------------------|


Guitarra:

E|-------------------------|------------------------|
B|---------12~---11~-----7-|-9~----11~--------------|
G|-------------------------|------------------------|
D|---------13~---11~-----8-|-9~----11~--------------|
A|-------------------------|------------------------|
E|-------------------------|------------------------|


(Repete tudo sem Intro e Ponte)

Final:
...sou eu
Violao 8x:

E|----------------------------------------|
B|---------------0--------------0---------|
G|------------8-------------6-------------|
D|---------6------------8-----------------|
A|----------------------------------------|
E|----0--------------0--------------------|


Guitarra 3x:

E|-------------------------|------------------------|
B|---------12~---11~-----7-|-9~----11~--------------|
G|-------------------------|------------------------|
D|---------13~---11~-----8-|-9~----11~--------------|
A|-------------------------|------------------------|
E|-------------------------|------------------------|


Guitarra:

E|-------------------------|------------------------|
B|---------12~---11~-----7-|-9~---------------------|
G|-------------------------|------------------------|
D|---------13~---11~-----8-|-9~---------------------|
A|-------------------------|------------------------|
E|-------------------------|------------------------|
Texto Colunas
Alterar tom ½ tom ½ tom
afinação acordes na letra esconder tabs mais »

Comentários (3)

  • Pedro Pedro : Postado em 16/03/2014 11:17

    Cade a VÍDEO AULA????

  • RafiusKs RafiusKs: Postado em 18/11/2013 15:50

    Existe uma tablatura melhor do que essa? Alguem sabe me informar? Ta errado!

  • lasc07 lasc07: Postado em 15/09/2012 09:23

    A tablatura está diferente de como eles realmente tocam. Mas a música é muito boa. Parabéns !

Composição: Tó Brandileone
Esse não é o compositor? Avise-nos.
Contribuição: PedroCatunda Correções: Ramon e mais 1 »
  1. Tudo Que Você Quiser - Luan Santana Manteve-se 6.004 exibições
  2. Lepo Lepo - Psirico Manteve-se 4.431 exibições
  3. Mozão - Lucas Lucco Manteve-se 4.139 exibições
  4. Logo Eu - Jorge e Mateus Manteve-se 3.880 exibições
  5. Gaveta - Fernando e Sorocaba Manteve-se 3.331 exibições
  6. Pra Você - Onze:20 Manteve-se 3.309 exibições
  7. Só Os Loucos Sabem - Charlie Brown Jr. Manteve-se 3.010 exibições
  8. Tempo Perdido - Legião Urbana Manteve-se 2.530 exibições
  9. Fui Fiel - Gusttavo Lima Manteve-se 2.507 exibições
  10. Na Linha do Tempo - Victor e Leo Manteve-se 2.140 exibições
  1. Jorge e Mateus- Manteve-se 23.268 exibições
  2. Legião Urbana- Manteve-se 20.589 exibições
  3. Luan Santana- Manteve-se 17.386 exibições
  4. Charlie Brown Jr.- Manteve-se 17.172 exibições
  5. Fernandinho- Manteve-se 14.617 exibições
  6. Thalles Roberto- Manteve-se 11.189 exibições
  7. Católicas- Manteve-se 11.033 exibições
  8. Gusttavo Lima- Manteve-se 10.465 exibições
  9. Victor e Leo- Manteve-se 10.434 exibições
  10. Aline Barros- Manteve-se 10.076 exibições
Exibir acordes »

Cifras e tabs

Fórum Cifra Club

Aprenda

Cifra Club News

Mais Serviços Cifra Club ID

Studio Sol

©1996 - 2014 Cifra Club · o primeiro, maior e mais acessado do Brasil · 329 mil músicas · 5.9 milhões pessoas cadastradas

publicidade
fechar