Crying in the rain

A-Ha

 A-Ha
Tom: D
		
/ - Slide (arrastar dedo   Ex: 3/8 = bata na casa 3 e arraste o dedo até a 8)
h - martelada (hammer on)
~ - Vibrar

Intro: D

D    G     A       D
I'll never let you see
D          G               A       D
The way my broken heart is hurting me
D           G           F#          Bm
I've got my pride and I know how to hide
       G
All my sorrow and pain
A                        Bm
I'll do my crying in the rain
D    G     A       D
If I wait for stormy skies
D			G               A       D
U wont know the rain from the tears in my eyes
D           G           F#
You'll never know that I still love you
Bm        G
So only heartaches remain
A				Bm
I'll do my crying in the rain

G                      Em
Raindrops falling from heaven
      A                  D
Could never take away my misery
Bm
Since we're not together
     G
I'll pray for stormy weather
   A
To hide these tears I hope you'll never see

Guitarra solo:


B|-------7---|---9----11----|
G|--10-------|--------------|


D    G			A       D
Someday when my crying's done
D          G               A       D
I'm gonna wear a smile and walk in the sun
D           G           F#
I may be a fool but till then darlin'
Bm             G
You'll never see me complain
A			Bm
I'll do my crying in the rain.       Oooo

Em G D Bm Em G D E Em G D


E|------------3h2/7~--------------7h11-----------|-----------3h2/7~--------------7/11----------|
B|-5h4/10~------------3h2/9-------------12h13/7~-|--5h4/10~------------3/8-------------7h6/12~-|
G|---------------------------5h4/9---------------|--------------------------5/9----------------|
D|-----------------------------------------------|---------------------------------------------|
A|-----------------------------------------------|---------------------------------------------|
E|-----------------------------------------------|---------------------------------------------|




E|--------------3h2/7~-----------------------|
B|--5h4/10~---------------6/10~--------------|
G|-------------------------------------------|
D|-------------------------------------------|
A|-------------------------------------------|
E|-------------------------------------------|


Bm
Since we're not together
     G
I'll pray for stormy weather
   A
To hide these tears I hope you'll never see
D    G			A       D
Someday when my crying's done
D          G               A		D
I'm gonna wear a smile and walk in the sun
D           G           F#
I may be a fool but till then darlin'
Bm             G
You'll never see me complain
A				Bm
I'll do my crying in the rain... 3x (Bm)

(D G D... )
106.684 exibições

Comentários 3

  • thedoors1965 thedoors1965: Postado em 20/08/2012 18:55

    linda musica

  • oguewgfag oguewgfag: Postado em 07/06/2012 19:36

    ta massa ta massa

  • Héron Héron: Postado em 11/01/2012 20:15

    as tabs est~so invertidas, sao ao contrario a ordem das notas, mas da pra entender.

Composição: Carole King / De Vita / J. Fred Coots
Esse não é o compositor? Avise-nos.
Contribuição: andrewsfg Correções: Hugo Orlando e mais 1 »
Exibir acordes »
publicidade
fechar