Mamma Mia

ABBA

 ABBA
Tom: D
		
Verso 1:
D                                            G
I've been cheated by you since I don't know when
D                                       G
So I made up my mind it must come to an end
D              D5+
Look at me now, will I ever learn
D                D5+              G
I don't know how, but I suddenly lose control
                  A
There's a fire within my soul
G    D   A
Just one look and I can hear a bell ring
G    D   A
One more look and I forget everything , oh oh

Refrão:
D                          G
Mamma mia here I go again ,my,my, how can I resist you?
D                                   G
Mamma mia does it really show again,my,my, just how much I've missed you
D               A               Bm             A
Yes , I've been broken hearted, blue since the day we parted
G C9  G    Em          A
  Why,why, did I ever let you go,
D          Bm
Mamma mia, now I really know
G C9 G  Em             A        D
  My,my I could never let you go

Verso 2:
D                                          G
I've been angry and sad about things that you do
D                                                  G
I can't count all the times that I've told you we're through
D                D5+
And when you go, when you slam the door
D                     D5+                G
I think you know that you won't be away too long
                A
You know that I'm not that strong
G    D   A
Just one look and I can hear a bell ring
G   D    A
One more look and I forget everything

Refrão:
D                           G
Mamma mia, here I go again, My my, how can I resist you?
D                              G
Mamma mia, does it show again, My my, just how much I've missed you
D               A
Yes, I've been broken hearted
Bm              A
Blue since the day we parted
G C9   G   Em          A
  Why, why did I ever let you go
D                      G C9  G     Em              A
Mamma mia even If I say  bye-bye, leave me now or never
D           Bm
Mamma mia It's a game we play
G          Em            A     D
  Bye-bye, doesn't mean for ever
D          Bm               G
Mamma mia, now I really know
      Em           A       D
My,my I could never let you go

Tablatura:

E|-------------0--2---------------------------|
B|-----3--2--3----------3--3--2--3--2--0------|
G|--2-----------------------------------------| (2x)
D|--------------------------------------------|
A|--------------------------------------------|
E|--------------------------------------------|




E|-----------2~------2--0--2--0----------------2~----2--0--3--2-----0---|
B|-----0--3----------------------3~------0--3--------------------3------|
G|--2---------------------------------2---------------------------------|
D|----------------------------------------------------------------------|
A|----------------------------------------------------------------------|
E|----------------------------------------------------------------------|





E|--2--0---------2--2--2--0-----0--2-----------|
B|--------3~-----------------3-----------------|
G|------------------------------------2~-------|
D|---------------------------------------------|
A|---------------------------------------------|
E|---------------------------------------------|





E|--3---2---0-------------------3---2---0----------------2-----0----|
B|---------------------------------------------------------3-----3--|
G|------------2-2-2-2-2-2-2~--------------2-2-2-2-2-2-2~------------|
D|------------------------------------------------------------------|
A|------------------------------------------------------------------|
E|------------------------------------------------------------------|





E|--0-----0-------------0--2--0-----0------3--3--3--3--2-----|
B|-----3-----3~---3--3-----------3~----3------------------3~-|
G|-----------------------------------------------------------| (2x)
D|-----------------------------------------------------------|
A|-----------------------------------------------------------|
E|-----------------------------------------------------------|





E|--5~-5--5--5----0--2--3---2~-2--2--2---------0--|
B|---------------------------------------2--3-----|
G|------------------------------------------------|
D|------------------------------------------------|
A|------------------------------------------------|
E|------------------------------------------------|





E|--0-----3--3--2--------0-----0-------0-----0-------------0--2--0-----|
B|-----3~-------------3-----3-----3~------3-----3~---3--3-----------3~-|
G|---------------------------------------------------------------------|
D|---------------------------------------------------------------------|
A|---------------------------------------------------------------------|
E|---------------------------------------------------------------------|




E|--0--------3--3--2-----0-----0-----|
B|-----3~-------------3-----3-----3~-|
G|-----------------------------------|
D|-----------------------------------|
A|-----------------------------------|
E|-----------------------------------|

Comentários 2

  • Heloísa Heloísa : Postado em 31/08/2014 16:22

    adorooo

  • rhuanzito rhuanzito: Postado em 04/04/2012 22:29

    eu toco essa musica num coral, fica muito legal!

Composição: Anni-Frid Lyngstad / Benny Andersson / Björn Ulvaeus / Jerome Kern / Johan Bengtsson / M. Jagger / Marquinhos Mosquerira / Nuno Carvalho / Stig Anderson / Treece
Esse não é o compositor? Avise-nos.
Contribuição: Gutti Correções: Joaopedrofra e mais 2 »
Exibir acordes »
publicidade
fechar