Aborto Elétrico

Fátima

56.691 exibições
Tom: G#
Intro: C5  G#5  Bb5

       C5
Vocês esperam uma intervenção divina 
                   G#5
Mas não sabem que o tempo agora 
              Bb5
está contra vocês 
         C5
Vocês se perdem no meio de tanto medo 
                   G#5
De não conseguir dinheiro pra 
                   Bb5
comprar sem se vender 
      C5
E vocês armam seus esquemas ilusórios 
               G#5
Continuam só fingindo que o mundo 
         Bb5
ninguém fez 
      C5
Mas acontece que tudo tem começo 
          G#5
Se começa um dia acaba, eu tenho pena 
      Bb5  (C5 Bb5)  (C5 G#5 Bb5)
de vocês 

Solo 2x:

E|--------------------------------------------------------------|
B|--------------------------------------------------------------|
G|---5-5-3-5-3-------5-5-3-5-3----------------------------------| 
D|--------------6-5-------------6-5-6-6-5-6-5-6-5-8-8-6-8-6-8-6-|
A|--------------------------------------------------------------|
E|--------------------------------------------------------------|


       C5
E as ameaças de ataque nuclear 
           G#5
Bombas de neutrons não foi 
           Bb5
Deus quem fez 
          C5
Alguém, alguém um dia vai se vingar 
          G#5
Vocês são vermes, pensam 
        Bb5
que são reis 
C5
Não quero ser como vocês 
G#5             Bb5
Eu não preciso mais 
      C5
Eu já sei o que tenho que saber 
   G#5    Bb5    (C5  G#5 Bb5)
E agora tanto faz 

(C5 G#5 Bb5 C5 G#5 Bb5)

Solo 2x:

E|--------------------------------------------------------------|
B|--------------------------------------------------------------|
G|---5-5-3-5-3-------5-5-3-5-3----------------------------------| 
D|--------------6-5-------------6-5-6-6-5-6-5-6-5-8-8-6-8-6-8-6-|
A|--------------------------------------------------------------|
E|--------------------------------------------------------------|

     C5
Três crianças sem dinheiro e sem moral 
                   G#5
Não ouviram a voz suave que 
         Bb5
era uma lágrima 
          C5
E se esqueceram de avisar pra todo mundo 
                  G#5            Bb5
Ela talvez tivesse nome e era Fátima 
        C5
E de repente o vinho virou água 
      G#5               Bb5
E a ferida não cicatrizou 
    C5
E o limpo se sujou 
                     G#5
E no terceiro dia ninguém 
  Bb5     (C5 G#5 Bb5)
ressuscitou 

Final.

E|--------------------------------------------------------------|
B|--------------------------------------------------------------|
G|---5-5-3-5-3-------5-5-3-5-3----------------------------------| 
D|--------------6-5-------------6-5-6-6-5-6-5-6-5-8-8-6-8-6-8-6-|
A|--------------------------------------------------------------|
E|--------------------------------------------------------------|
    Composição: Renato Russo / Flávio LemosColaboração e revisão:
    • Francisco
    • Fox

    Comentários 4

    140 .
    140 cancelar

    conseguiu tocar?

    • wsl1101
    • matheus
    • Fernando Alves
    • Leo
    • wilston.douglas
    • Eduardo
    • thiago.luis.renatinho
    • •••
    Gustavo Coimbra410 visualizações
      ver covers de outras músicas »
      0:00 / 0:00

      Capítulos

        2 versões de baixo exibições contribuição e correção
        2 versões de Guitar Proformatodownloadscontribuição
        play/pausefechar subir/descer velocidade
        6ª corda E5ª corda A4ª corda D3ª corda G2ª corda B1ª corda E
          acordes
          publicidad
          fechar
          ok