Get it hot

AC/DC

 AC/DC
Tom: E
		
  Intro + Verse:

E|-----------------------|-----------------------|-----------------------|
B|----7--9----7----9--7--|----7--9----7----9--7--|----7--9----7----9--7--|
G|----8--9----8----9--8--|----8--9----8----9--8--|----8--9----8----9--8--|
D|----9--9----9----9--9--|----9--9----9----9--9--|----9--9----9----9--9--|
A|-----------------------|-----------------------|-----------------------|
E|-----------------------|-----------------------|-----------------------|



|-----------------------|-----------------------|-----------------------|
|----7--9----7----9--7--|----7--9----7----9--7--|----7--9----7----9--7--|
|----8--9----8----9--8--|----8--9----8----9--8--|----8--9----8----9--8--|
|----9--9----9----9--9--|----9--9----9----9--9--|----9--9----9----9--9--|
|-----------------------|-----------------------|-----------------------|
|-----------------------|-----------------------|-----------------------|

                                                    Going round...

|-----------------------|-----------------------|-----------------------|
|----7--9----7----9--7--|----7--9----7----9--7--|----7--9----7----9--7--|
|----8--9----8----9--8--|----8--9----8----9--8--|----8--9----8----9--8--|
|----9--9----9----9--9--|----9--9----9----9--9--|----9--9----9----9--9--|
|-----------------------|-----------------------|-----------------------|
|-----------------------|-----------------------|-----------------------|

 (see 2nd guitar fill-in below)

|-----------------------|-----------------------|-----------------------|
|----7--9----7----9--7--|----7--9----7----9--7--|----7--9----7----9--7--|
|----8--9----8----9--8--|----8--9----8----9--8--|----8--9----8----9--8--|
|----9--9----9----9--9--|----9--9----9----9--9--|----9--9----9----9--9--|
|-----------------------|-----------------------|-----------------------|
|-----------------------|-----------------------|-----------------------|



|-----------------------|-----------------------|-----------------------|
|----7--9----7----9--7--|----7--9----7----9--7--|----7--9----7----9--7--|
|----8--9----8----9--8--|----8--9----8----9--8--|----8--9----8----9--8--|
|----9--9----9----9--9--|----9--9----9----9--9--|----9--9----9----9--9--|
|-----------------------|-----------------------|-----------------------|
|-----------------------|-----------------------|-----------------------|


                        nobody's...

|----------------------|-----------------------|-----------------------|
|----7--9----7----9----|----------2----2----7--|----7--5--4--5--4------|
|----8--9----8----9----|--1--1----2----2-------|----x--4--4--4--4------|
|----9--9----9----9----|--2--2----2----2----7--|----7--6--4--6--4------|
|----------------------|--2--2----0----0-------|-----------------------|
|----------------------|--0--0-----------------|-----------------------|



|-----------------------|-----------------------|-----------------------|
|----------2----2----7--|----7--5--4--5--4------|----------2----2----7--|
|--1--1----2----2-------|----x--4--4--4--4------|--1--1----2----2-------|
|--2--2----2----2----7--|----7--6--4--6--4------|--2--2----2----2----7--|
|--2--2----0----0-------|-----------------------|--2--2----0----0-------|
|--0--0-----------------|-----------------------|--0--0-----------------|

                                                       Get it hot

|-----------------------|-----------------------|------------------|
|----7--5--4--5--4------|----------2----2----4--|------------------|
|----x--4--4--4--4------|--1--1----2----2----4--|------------------|
|----7--6--4--6--4------|--2--2----2----2----4--|------------------|
|-----------------------|--2--2----0----0----2--|------------------|
|-----------------------|--0--0-----------------|------------------|



|---------------------|---------------------|---------------------|
|----4--5----4--------|----4--5----4--------|----4--5----4--------|
|----4--4----4--------|----4--4----4--------|----4--4----4--------|
|----4--6----4--------|----4--6----4--------|----4--6----4--------|
|---------------------|---------------------|---------------------|
|---------------------|---------------------|---------------------|

                                                          All right

|---------------------|---------------------|---------------------|
|----4--5----4--------|----4--5----4--------|----4--5----4--------|
|----4--4----4--------|----4--4----4--------|----4--4----4--------|
|----4--6----4--------|----4--6----4--------|----4--6----4--------|
|---------------------|---------------------|---------------------|
|---------------------|---------------------|---------------------|



|-----------------------|-------------------|
|----------2---------4--|--4----------------|
|--1--1----2----1----4--|--4----------------|
|--2--2----2----2----4--|--4----------------|
|--2--2----0----2----2--|--2----------------|
|--0--0---------0-------|-------------------|


 guitar fill-in in verse:

|-------------------|-----------------------|-------------------|-----------------------|
|----------------7--|----7--5--4--5--4------|----------------7--|----7--5--4--5--4------|
|----------------x--|----x--4--4--4--4------|----------------x--|----x--4--4--4--4------|
|----------------7--|----7--6--4--6--4------|----------------7--|----x--4--4--4--4------|
|-------------------|-----------------------|-------------------|-----------------------|
|-------------------|-----------------------|-------------------|-----------------------|

Comentários 0

Composição: Angus Young / Bon Scott / Johan Fransson / M. Gordon / Malcolm Young / Nelly Furtado / Robi Rosa
Esse não é o compositor? Avise-nos.
Consegui tocarAinda não conseguiram tocar essa música. Seja o primeiro!
    Não consegui tocar
    Exibir acordes »
    publicidade
    fechar