Hell Ain't A Bad Place To Be

AC/DC

 AC/DC
Tom: G
		
(Malcolm Young, Angus Young & Bon Scott) 
 
Publicado sobre 
 (1977)     
 If You Want Blood You've Got It (1978)     
 Live From The Atlantic Studios (1997)     
 Let There Be Rock - The Movie - Live In Paris (1997)     
 
 
Tablatura de guitarra 
 
  Inro:

E||---3------2------3----|----2------3----2----|-------------------|
B||---3------3------3----|----3------3----3----|--2----------------|
G||*--0------2------0----|----2------0----2----|--2----------------|
D||*--0------0------0----|----0------0----0----|--2----------------|
A||----------------------|---------------------|--0----------------|
E||---3------2------3----|----2------3----2----|-------------------|


                   3x

|-------------------||------------------|------------------|
|-------------------||------------------|------------------|
|------------------*||------------------|------------------|
|------------------*||------------------|------------------|
|-------------------||------------------|------------------|
|-------------------||------------------|------------------|


verse:


|---------------------|---------------------|----------------------|
|---------------------|---------------------|----------------------|
|---------------------|---------------------|-----2--2--2----------|
|--5------4------5----|----4------5----4----|--5--2--2--2----------|
|--0------0------0----|----0------0----0----|--0--0--0--0----------|
|---------------------|---------------------|----------------------|



|----------------------|---------------------|---------------------|
|----------------------|---------------------|---------------------|
|-----2--2--2----------|---------------------|---------------------|
|--5--2--2--2----------|--5------4------5----|----4------5----4----|
|--0--0--0--0----------|--0------0------0----|----0------0----0----|
|----------------------|---------------------|---------------------|



|----------------------|----------------------|---------------------|
|----------------------|----------------------|---------------------|
|-----2--2--2----------|-----2--2--2----------|---------------------|
|--5--2--2--2----------|--5--2--2--2----------|--5------4------5----|
|--0--0--0--0----------|--0--0--0--0----------|--0------0------0----|
|----------------------|----------------------|---------------------|



|---------------------|----------------------|----------------------|
|---------------------|----------------------|----------------------|
|---------------------|-----2--2--2----------|-----2--2--2----------|
|----4------5----4----|--5--2--2--2----------|--5--2--2--2----------|
|----0------0----0----|--0--0--0--0----------|--0--0--0--0----------|
|---------------------|----------------------|----------------------|



|---------------------|---------------------|----------------------|
|---------------------|---------------------|----------------------|
|---------------------|---------------------|-----2--2--2----------|
|--5------4------5----|----4------5----4----|--5--2--2--2----------|
|--0------0------0----|----0------0----0----|--0--0--0--0----------|
|---------------------|---------------------|----------------------|


                         she's...       knows I'm a man

|----------------------|--------------------|------------------|
|----------------------|--3--------------3--|------------------|
|-----2--2--2----------|--2--------------2--|------------------|
|--5--2--2--2----------|--4--------------5--|------------------|
|--0--0--0--0----------|--0--------------0--|------------------|
|----------------------|--------------------|------------------|


 she's gotta see                              crawls...

|-------------------|-----------------------|---------------------|
|--3----------------|--3--3--3--3----3------|--0------------0--2--|
|--2----------------|--2--2--2--2----2------|--1------------1--2--|
|--4----------------|--5--5--5--5----4------|--2------------2--2--|
|--0----------------|--0--0--0--0----0------|--2------------2--0--|
|-------------------|-----------------------|--0------------0-----|


                                                            hell ain't...

|------------------|-----------------3--|------------------|------------------|
|------------------|-----------------3--|------------------|------------------|
|------------------|--1--------------0--|------------------|------------------|
|------------------|--2--------------0--|------------------|------------------|
|------------------|--2-----------------|------------------|------------------|
|------------------|--0--------------3--|------------------|------------------|

Comentários 1

Composição: Angus Young/ Malcolm Young/ Bon Scott
Esse não é o compositor? Avise-nos.
Exibir acordes »
publicidade
fechar