AC/DC

Highway To Hell

1.118.831 exibições
Tom: D
(intro)
(riff 1 - 2x) A ( D5/F# G5 ) (3x) D5/F# A

(primeira parte)
(riff 1) A ( D5/F# G5 ) (3x) D5/F# A

(primeira parte)
Living easy, livin' free
Season ticket, on a one, way ride
Asking nothing, leave me be
Taking everything in my stride

Don't need reason, don't need rhyme

(passagem) A ( D5/F# G5 ) (3x) D5/F#  E5
Ain't nothing I would rather do
Going down, party time
My friends are gonna be there too

(refrão)

(riff 2) ( A D5 G5 D5 ) (3x)  A  D5
I'm on the highway to hell
Highway to hell
Highway to hell
I'm on the highway to hell

(riff 1 - 2x) A ( D5/F# G5 ) (3x) D5/F# A
No stop signs, speedin' limit
Nobody's gonna slow me down
Like a wheel, gonna spin it
Nobody's gonna mess me 'round

Hey Satan! Paid my dues
Playin' in a rockin' band

(passagem) A ( D5/F# G5 ) (3x) D5/F#  E5
Hey mama! Look at me
I'm on my way to the promise land

(riff 2) ( A D5 G5 D5 ) (3x)  A  D5
I'm on the highway to hell
Highway to hell
Highway to hell
I'm on the highway to hell

(riff 3 - 2x) preparação para o solo
( D D5/G D ) (2x)  G5 D

Don't stop me!

(base do solo) (riff 2) ( A D5 G5 D5 ) (3x)  A  D5

(solo)
(parte 1)

-------5-------5-------5-------5-------5-----------
-----5-5-----5-5-----5-5-----5-5-----5-5-----------
-7b9-----7b9-----7b9-----7b9-----7b9---------------
---------------------------------------------------
---------------------------------------------------
---------------------------------------------------


(parte 2)

-------------------------------5-------------------
--7br-5--------------------------5-----------------
--7br-5---7-5---------------5b-----4b5r4-2---------
--------7-----7-4b5-------7----------------4b5-----
--------------------5-3----------------------------
------------------------5----------------------5---


(parte 3)

------------------5--------------------------------
-5---5b-------------5---------10-------------------
-5---5b---------------5---5/9----------------------
---7----7-5---5/7-------7--------------------------
------------7--------------------------------------
---------------------------------------------------


(riff 2) ( A D5 G5 D5 ) (3x)  A D5

(3x)
I'm on the highway to hell

I'm on the highway
I'm on the (highway to hell)

(3x)
I'm on the highway to hell (highway to hell)

Yeah I'm going down anyway
I'm on the highway to hell

(dicas)

(pick scratch)

E|----------------------------|
B|----------------------------|
G|----------------------------|
D|-19/0---(raspa palheta)-----|
A|-19/0---(raspa palheta)-----|
E|-19/0---(raspa palheta)-----|


(frases finais)

(frase 1)               (frase 2)

-15b17--12----------|--12------------
-----------13--10~--|--13b-----------
--------------------|------14~-------
--------------------|----------------
--------------------|----------------
--------------------|----------------


(frase 3)

---------15------12------------------
-15brb17~--------15brb17-------------
-------------------------------------
-------------------------------------
-------------------------------------
-------------------------------------
    Composição: Angus Young / Bon Scott / Malcolm YoungColaboração e revisão:
    • Gerard
    • Fabricio
    • Tiago

    Comentários 136

    140 .
    • Vini Vini: Em 08/02/2016 22:09

      alguem ai sabe aquele solo que o angus toca antes de highway to hell no live at river plate?

    • rafaelsb15 rafaelsb15: Em 07/01/2016 21:29

      O solo ta errado :(

    • Guilherme Mateus Guilherme Mateus: Em 15/11/2015 22:34

      Gente minha guitarra é uma Memphis MG330 que tem Floyd Rose, isso tem algo haver? A Base sai ok, mas o solo não tá batendo =/

      • Filipe Filipe: Em 04/02/2016 15:26

        aparentemente o solo ta errado, nao a ponte nao tem nada com isso

    • Núbia Evelyn Núbia Evelyn: Em 19/09/2015 23:58

      Fácil. No refrão gosto mais de usar as pestanas.

    • raphaell.sillva6661 raphaell.sillva6661: Em 04/03/2015 11:49

      Qual afinação devo usar ?
      E qual efeito ?
      Uso Ibanez GIO e um Brutal Distortion...
      Dicas por favor...

    • raphaell.sillva6661 raphaell.sillva6661: Em 02/03/2015 14:09

      Então, eu tentei tocar a musica mas saiu totalmente diferente, acordes e tempo tudo certo, mas o som não bate :/
      Toco em IBANEZFloydRose GIO

    • Alice Alice: Em 19/01/2015 17:48

      mt fácil '-'

    • Ricardinho Ricardinho: Em 14/12/2014 16:41

      mds coisa facil da poha

    • yuri.vinicios yuri.vinicios: Em 12/08/2014 02:08

      boa musica ,classica . so o solo q achei q seria masi foda de pegar mas ta bom .

    140 cancelar
    0:00 / 0:00
    4 versões de baixo exibições contribuição e correção
    1 versão de bateria exibições contribuição e correção
    1 versão de gaita exibições contribuição e correção
    play/pausefechar subir/descer velocidade
    6ª corda E5ª corda A4ª corda D3ª corda G2ª corda B1ª corda E
      acordes
      publicidad
      fechar
      ok