Let there be rock

AC/DC

 AC/DC
Tom: E
		
Intro:4x

E|-------------------------------------------------------------------|
B|-------------------------------------------------------------------|
G|----------------------------------------------2--------------------|
D|-0--2-2-------------0--2-2--------------0-2-2-2-2-2-0-2-2----------|
A|-0--2-2-------------0--2-2--------------0-2-2-0-2-2-0-2-2----------|
E|-3--0-0--0-0-0-0-0--3--0-0-0-0-0-0-0----3-0-0---0-0-3-0-0-0-0-0-0-0|

P.m	   . . . . .         . . . . .                      . . . . .

Verso:(sem guitarra!)
In the beginning
Back in nineteen fifty five
Man didn't know 'bout a rock 'n' roll show
'N all that jive
The white man had the schmaltz
The black man had the blues
No one knew what they was gonna do
But Tschaikovsky had the news, he said
Let there be sound, and there was sound
Let there be light, and there was light
Let there be drums, there was drums
Let there be guitar, there was guitar, ah Let there be rock

Ponte p/ o solo:
      A5      7x

e|----------|-----------------|
B|----------|-----------------|
G|----2-x-x-|--2-2--2-x-x--x--|
D|----2-x-x-|--2-2--2-x-x--x--|
A|----0-x-x-|--0-0--0-x-x--x--|
E|----------|-----------------|


Solo 1:(A base vai fazendo a ponte p/ o solo!)

E|-------------------------------------------------------------|
B|-------------------------------------------------------------|
G|-------------------------------------5--7-7(9)-7-5--7-5~~~~~-| 
D|---7---7---7--------7---7---7----7---------------------------|
A|-------------------------------------------------------------|
E|-------------------------------------------------------------|



E|-------------------------------------------------------------|
B|-------------------------------------------------------------|
G|---5-7-7(9)-7-5-7---5-7-7(9)-7---5-5-----5---5-5---5-5---5-5-|
D|-7----------------7------------7-----7-7---7-----7-----7-----|
A|-------------------------------------------------------------|
E|-------------------------------------------------------------|



E|------------------------------------------------------------|
B|------------------------------------------------------------|
G|---5-5---5-5---5---5-5---5-5---5-5---5-5---5-5---5-5---5-5--|
D|-7-----7-----7---7-----7-----7-----7-----7-----7-----7------|
A|------------------------------------------------------------|
E|------------------------------------------------------------|



E|------------------------------------------------------------|
B|------------------------------------------------------------|
G|---5-5---5-5---7---7-7---7-7---7-7---7-7---7---7-7---7-7----|
D|-7-----7-----7---9-----9-----9-----9-----9---9-----9--------|
A|------------------------------------------------------------|
E|------------------------------------------------------------|



E|--------------------------17--------------------------------|
B|-------------------20(22)----20-17--------------------------|
G|---7-7---7-7---7-------------------17-17----19-17-----------|
D|-9-----9-----9---------------------------19-------19--------|
A|------------------------------------------------------------|
E|------------------------------------------------------------|

		

E|-5-------5-5-------5-5-------5-5-------5-5-------5-------5~~|
B|---8(10)-----8(10)-----8(10)-----8(10)-----8(10)---8(10)----|
G|------------------------------------------------------------|
D|------------------------------------------------------------|
A|------------------------------------------------------------|
E|------------------------------------------------------------|



E|-12h14p12h14p12h15~~~~~~------------------------------------|
B|------------------------------------------------------------|
G|------------------------------------------------------------|
D|------------------------------------------------------------|
A|------------------------------------------------------------|
E|------------------------------------------------------------|


Ponte:4x

E|-------------------------------------------------------------------|
B|-------------------------------------------------------------------|
G|----------------------------------------------2--------------------|
D|-0--2-2-------------0--2-2--------------0-2-2-2-2-2-0-2-2----------|
A|-0--2-2-------------0--2-2--------------0-2-2-0-2-2-0-2-2----------|
E|-3--0-0--0-0-0-0-0--3--0-0-0-0-0-0-0----3-0-0---0-0-3-0-0-0-0-0-0-0|

P.m	   . . . . .         . . . . .                      . . . . .

Verso 2:(sem guitarra!)
And it came to pass
That rock 'n' roll was born
All across the land every rockin' band
Was blowin' up a storm
And the guitar man got famous
The business man got rich
And in every bar there was a superstar
With a seven year itch
There was fifteen million fingers
Learnin' how to play
And you could hear the fingers pickin'
And this is what they had to say
Let there be light, sound, drums, 'n guitar, ah Let there be rock

Ponte p/ o solo:
      A5      7x

e|----------|-----------------|
B|----------|-----------------|
G|----2-x-x-|--2-2--2-x-x--x--|
D|----2-x-x-|--2-2--2-x-x--x--|
A|----0-x-x-|--0-0--0-x-x--x--|
E|----------|-----------------|


Solo 2:(A base vai fazendo a ponte p/ o solo!)

E|------------------------------------------------------------|
B|------------------------------------------------------------|
G|------------------------------------------------------------|
D|--14-------------------------------------------------------|
A|----------0-0-3-4-0-0-3-4-0-0-3-4-0-0-3-4-0-0-3-4-0-0-3-4---|
E|------------------------------------------------------------|



E|-----------------|------------------------------------------|
B|-----------------|------------------------------------------|
G|-----------------|------------------------------------------|
D|-----------------|--------2-2-4-4-5-5-4-4-2-2---------------|
A|-0-0-3-4-0-0-3-4-|0-0-4-4---------------------4-4-0-0-4-4---|
E|-----------------|------------------------------------------|



E|------------------------------------------------------------|
B|------------------------------------------------------------|
G|------------------------------------------------------------|
D|2-2-4-4-5-5-4-4-2-2-------------4-4-6-6-7-7-6-6-4-4---------|
A|--------------------4-4-2-2-6-6---------------------6-6-2-2-|
E|------------------------------------------------------------|



E|--------------------------------9-9--8-------8-------8------|
B|-------------------------------10------10------10------10---|
G|--------------------------------9---------11------11------11|
D|----4-4-6-6-7-7-6-6-4-4-------------------------------------|
A|6-6---------------------6-6---------------------------------|
E|------------------------------------------------------------|



E|-8-------8-------8-------8-------8-------8-------8-----8----|
B|---10------10------10------10------10------10----------10---|
G|------11------11------11------11------11------11---11-------|
D|------------------------------------------------------------|
A|------------------------------------------------------------|
E|------------------------------------------------------------|



E|-12h14p12h14p12h15~~~~~~------------------------------------|
B|------------------------------------------------------------|
G|------------------------------------------------------------|
D|------------------------------------------------------------|
A|------------------------------------------------------------|
E|------------------------------------------------------------|


Ponte:4x

E|-------------------------------------------------------------------|
B|-------------------------------------------------------------------|
G|----------------------------------------------2--------------------|
D|-0--2-2-------------0--2-2--------------0-2-2-2-2-2-0-2-2----------|
A|-0--2-2-------------0--2-2--------------0-2-2-0-2-2-0-2-2----------|
E|-3--0-0--0-0-0-0-0--3--0-0-0-0-0-0-0----3-0-0---0-0-3-0-0-0-0-0-0-0|

P.m	   . . . . .         . . . . .                      . . . . .

Verso 3:                                     
One night in a club called the Shakin' Hand  E5 G5 E5 A5 E5 G5 E5 

                                           E|----------------------|
                                           B|----------------------|
                                           G|---------2------------| 
                                           D|-2-0-2-2-2-2-2-0-2/---|
                                           A|-2-0-2-2-0-2-2-0-2/---|
                                           E|-0-3-0-0---0-0-3-0/---|           

                                     
There was a 42 decibel rockin' band   E5 G5 E5 A5 E5 G5 E5

                                   E|----------------------|
                                   B|----------------------|
                                   G|---------2------------| 
                                   D|-2-0-2-2-2-2-2-0-2/---|
                                   A|-2-0-2-2-0-2-2-0-2/---|
                                   E|-0-3-0-0---0-0-3-0/---|                      

And the music was good                       
And the music was loud    E5 G5 E5 A5 E5 G5 E5 

                       E|----------------------|
                       B|----------------------|
                       G|---------2------------| 
                       D|-2-0-2-2-2-2-2-0-2/---|
                       A|-2-0-2-2-0-2-2-0-2/---|
                       E|-0-3-0-0---0-0-3-0/---|  

                                                
And the singer turned and he said to the crowd    E5 G5 E5 A5 E5 G5 E5

                                               E|----------------------|
                                               B|----------------------|
                                               G|---------2------------| 
                                               D|-2-0-2-2-2-2-2-0-2/---|
                                               A|-2-0-2-2-0-2-2-0-2/---|
                                               E|-0-3-0-0---0-0-3-0/---| 

Let there be rock

Ponte p/ o solo:
      A5      7x

e|----------|-----------------|
B|----------|-----------------|
G|----2-x-x-|--2-2--2-x-x--x--|
D|----2-x-x-|--2-2--2-x-x--x--|
A|----0-x-x-|--0-0--0-x-x--x--|
E|----------|-----------------|


Solo 3:(A base vai fazendo a ponte p/ o solo! e o solo vai até o final!)

E|-------------------------------------------------------------------||
B|----5--5--5----5--5-----5-5--------5-5-----------------------------||
G|-----------------------------7-5-------7-5-------5-5---5-5-7-5-----||
D|---------------------------------7---------5---7-----7---------7---||
A|-------------------------------------------------------------------||
E|-------------------------------------------------------------------||



E|-------------------------------------------------------------------||
B|---------------------8-7-5-----------------------------------------||
G|--5--------5---------------7-5-----5-7---5-----5---5---5---5-------||
D|----7-5-77---7-5-77------------7-7-----7---7----7---7---7---7------||
A|-------------------------------------------------------------------||
E|-------------------------------------------------------------------||


(o solo continua) (4:44)

E|--------------------------------------------------------||
B|--------------------------------------------------------||
G|--------------------------------------------------------||
D|--------------------------------------------------------||
A|--------------------------------------------------------||
E|--------------------------------------------------------||


(5:00)

 |---3X-------------------------| Váris vezes isso
E|------------------------------|--------------------------||
B|--777...---999...---101010...-|-7910-------------------||Ele fica
G|--888...---999...---111111...-|-8911-------------------||fazendo uma coisa
D|------------------------------|--------------------------||com esse acordes
A|------------------------------|--------------------------||e depois ele termina
E|------------------------------|--------------------------||com um solinho!

Comentários 1

  • BRUNO BRUNO: Postado em 18/01/2014 14:47

    LET THERE BE ROCK NOW !!!

Composição: Angus Young / Bon Scott / Johan Fransson / M. Gordon / Malcolm Young / Nelly Furtado / Robi Rosa
Esse não é o compositor? Avise-nos.
Exibir acordes »
publicidade
fechar