Who Made Who

AC/DC

 AC/DC
      Intro: bass and drums
G|---------------------------------------------------------------------------|
D|---------------------------------------------------------------------------|
A|------3333-----3333----3333----3333----3333--------------------------------|
E|---------------------------------------------------------------------------|

G|---------------------------------------------------------------------------|
D|---------------------------------------------------------------------------|
A|--------3333-----3333----3333-----3333-----3333----------------------------|
E|---------------------------------------------------------------------------|

G|---------------------------------------------------------------------------|
D|---------------------------------------------------------------------------|
A|---------------------------------------------------------------------------|
E|---------5555---5555-----5555---5555-----5555------------------------------|
   
G|---------------------------------------------------------------------------|
D|---------------------------------------------------------------------------|
A|----------------------------- --------------------------|
E|-----3333----------3333-------3333-----------3333--------------------------|

G|---------------------------------------------------------------------------|
D|---------------------------------------------3-----------------------------|
A|---------------------------------------3--5--------------------------------|
E|------------------------------------5--------------------------------------|

G|---------------------------------------------------------------------------|
D|---------------------------------------------------------------------------|
A|-----3333------3333----3333-----3333-----------5555-----5555----5555---5555|
E|---------------------------------------------------------------------------|

G|---------------------------------------------------------------------------|
D|---------------------------------------------------------------------------|
A|---------------------------------------------------------------------------|
E|-------3333----------3333---------3333---------0000-----0000----0000---0000|

G|---------------------------------------------------------------------------|
D|---------------------------------------------------------------------------|
A|---3-------1-----------------------------3---------------------------------|
E|--------------------0-------3----------------------0-----3-----------------|

Comentários 0

Composição: Angus Young / Brian Johnson / Johan Fransson / José Raimundo / Malcolm Young / Nelly Furtado
Esse não é o compositor? Avise-nos.
Contribuição: Élison Correções: Tavinho Mota »
publicidade
fechar