Suspenso no espaço

Acústicos & Valvulados

 Acústicos & Valvulados
Intro

G|-------------------------------|
D|-------------------------------|
A|-3-3-3-3/15-15-15-15-----------|
E|-------------------------------|

Base

G|-------------------------------|
D|-------------------------------|
A|------3-33---5-55--8-88-88-----|
E|-------------------------------|

Refrão

G|-------------------------------|
D|-------------------------------|
A|--3-33-------------------------|
E|--------3-33------1-11---------|

Base

G|------------------------------|
D|------------------------------|
A|---3-33----5-55----8-88-------|
E|------------------------------|

Naquela parte: O desenho animado.....

G|------------------------------|
D|------------------------------|
A|-------33---33--3-3-3/15-15-15|
E|------------------------------|

Solo

G|-------------------------------|
D|-------------------------------|
A|--3-33---5-55---8-88-8-8--8753-|
E|-------------------------------|

Refrão/Final 

G|----------------------------------|
D|----------------------------------|
A|--3-33----------------------------|
E|-------3-33----1-11-1/12-12-12-12-|

Comentários 0

Composição: Paulo James
Esse não é o compositor? Avise-nos.
Contribuição: bidone Correções: Élison »
Consegui tocarAinda não conseguiram tocar essa música. Seja o primeiro!
    Não consegui tocar
    publicidade
    fechar