Toca o Telefone

Adelino Nascimento

 Adelino Nascimento
Tom: G
		
(intro)  G D Em C G D

    G            D                       Em         C        G         D
E |--------------------------------------------------------------------------2-2--|
B |--------------------------------------------------------------------------3-3--|
G |-4--4-5-4-5-4-------4------4---4---------------------5-5-5-5--4-4-5-4-----2-2--|
D |--------------7-5-7---7--7---7---7-5-4-5-7-5--------------------------7--------|
A |---------------------------------------------7-5-3-----------------------------|
E |-------------------------------------------------------------------------------|


(riff 1)

E |-------------------|        E|-----------------|
B |-------------------|        B|-----------------|
G |-------------------|   ou   G|-----------------|
D |-------------------|        D|--0---0-1-2------|
A |-5-4-5-6-7---------|        A|----4------------|
E |-------------------|        E|-----------------|


(riff 2)

E |------------------------------|
B |------------------------------|
G |----4-2---------4-2-----------|
D |--2-----5-2---2-----5-2---2---|
A |------------5-----------5-----|
E |------------------------------|


     G                            D   (riff 1)
Meu bem eu te ligo, com tanta saudade
Em          C               D
  Telefone toca, você não atende
             G                         D   (riff 1)
Eu tô quase louco, pra te dizer o que sinto
Em           C                     D
  Eu tô te amando, meu bem eu não ligo
Em                                C
  Eu sei que você nunca vai esquecer
                             D
Os lindo momentos só eu e você
                             Em  (riff 2) D Em D Em
Que você jurava não me esquecer
Em                                   C
  Eu sei que foi tudo uma grande ilusão
                            D
Você só maltrata o meu coração
                               Em (riff 2) D Em D Em
Me deixa chorando ,sozinho em vão

		      Em
Pegue o telefone, diz que me ama
      D
Diz que adora, não me engana
      C
Você é tudo, que eu mais quero
       D
Vem me escutar... (2x)


    G            D                       Em         C        G         D
E |-------------------------------------------------------------------------------------
B |-------------------------------------------------------------------------------------
G |-4--4-5-4-5-4-------4------4---4---------------------5-5-5-5--4-4-5-4----------------
D |--------------7-5-7---7--7---7---7-5-4-5-7-5--------------------------7--------------
A |---------------------------------------------7-5-3-----------------------5-4-5-6-7---
E |-------------------------------------------------------------------------------------

Em                                C
  Eu sei que você nunca vai esquecer
                             D
Os lindo momentos só eu e você
                             Em (riff 2)  D Em D Em
Que você jurava não me esquecer
Em                                   C
  Eu sei que foi tudo uma grande ilusão
                            D
Você só maltrata o meu coração
                               Em (riff 2) D Em D Em
Me deixa chorando ,sozinho em vão

(refrão)
7.743 exibições

Comentários 1

Composição: Sabe quem é o compositor? Envie pra gente. Contribuição: Natan Correções: Natan »
Consegui tocarAinda não conseguiram tocar essa música. Seja o primeiro!
    Não consegui tocar
    Exibir acordes »
    publicidade
    fechar