A Esperança Chegando

Adoração e Vida

Sem foto do Adoração e Vida Compositor: Bruno Rocha / Walmir Alencar
Tom: G
		

                           G                G          D
E|---------7-7-7h8-5-5-7--------------------7--------------------|
B|---8--10--------------8-----8-8-7-5-7-8---8---7h8p7------------|
G|-7----------------------------------------7---------7----------|
D|---------------------------------------------------------------|
A|---------------------------------------------------------------|
E|---------------------------------------------------------------|


G              G4
Bem mais perto já se pode ver
G               D/F#
A esperança chegando
Em                   C9
Sem as honras de um rei
           G/B         Am      Em D
Sem carruagem, sem o brilho do ouro
G            G4
O seu reino não pertence aqui
G                 F#º    B7
Mesmo assim vêm a ele ouvir
Em               C9
 E lhe rendem louvor
                 G/B Am7 C/D
Com mantos e com palmas vêm
     C9        D/C  G/B
Coroado ele vem! adorado ele vem!
         Em                Em/D
A ele a honra e a glória, toda a realeza
 Em/C#      Em/C            D
Cristo salvador chegando está
    C9         D/C   G/B
Coroado ele vem! adorado ele vem!
           C9          G/B          Am7
Já não se calam e proclamam sem cessar
 C/D C9
Hosana!

(repete tudo)

( G/B  Em  D )

C9    G/B     Em      D/F#
 Hosana, Hosana, Hosana...


E|---------------------------------------------------|
B|-7h8p7-7--------7h8p7-7----------8-7-8--10---------|
G|----------7--------------7-------------------------|
D|---------------------------------------------------|
A|---------------------------------------------------|
E|---------------------------------------------------|
12.080 exibições

Comentários 0

Composição: Sabe quem é o compositor? Envie pra gente. Contribuição: russenito Correções: Icaro e mais 1 »
Consegui tocarAinda não conseguiram tocar essa música. Seja o primeiro!
    Não consegui tocar
    Exibir acordes »
    publicidade
    fechar