Jesus Meu Amigo

Adriana

 Adriana
Tom: A
		
Intro:
Base: B  A  E (3x) F#m  A

Solo:


E|-----------------------------------
B|-2/4~~--4h5p4-2h0------------2-2/4~~-
G|------------------1~~-1-2-4---------
D|-----------------------------------
A|-----------------------------------
E|-----------------------------------




E|--------------------------9h11-11~~--
B|-4h5p4-2h0--------9-10-12------------
G|------------1~~---------------------
D|-----------------------------------
A|-----------------------------------
E|-----------------------------------




E|-11h12p11-9-7----------------------
B|----------------7h9~~-9-10h12-------
G|-----------------------------------
D|-----------------------------------
A|-----------------------------------
E|-----------------------------------




E|---------------------7h9-7-------------
B|------9-9h10h12--------------9-7---------
G|-9~~-------------9~~---------------9-6----
D|---------------------------------------9~~-
A|------------------------------------
E|------------------------------------



 E                   Esus4            E Esus4
Jesus Te recebi no coração
E                     Esus4                E
E através dessa comunhão
        E/G#            A B/A A
Eu posso sentir
                                    E                    (Bsus4 A)
Eu sei que estás junto a mim

Te tornas um pedaço de pão

Pra fazer morada em mim

Isso me faz lembrar

De uma amizade sem fim
    Bm7
Acolho-te com carinho
         D                               A/C#              E              Esus4 E
Repousa em minha casa à vontade
            D
Agradável é Tua presença
            E/G#                          A                     B         E/G# A
Não quero que fiques longe de mim
        E                  F#m
Jesus meu amigo
       E/G#           A
Te amo, Te amo
       E                   F#m
Jesus meu amigo
       C#m           B
Te amo, Te amo
A               Esus4 E
Estás comigo
F#m                                   E/G#
Mora em meu coração
            A                                      B C#m
Descansa em meu coração
F#m7                              E/G#
Faz de mim tua morada
A                                 Bsus4 E/G# A
Permanece em mim
7.320 exibições

Comentários 1

  • washynogueira washynogueira: Postado em 18/12/2012 10:39

    eu postei o solo mais não fico como postei!
    porque?

Composição: Adriana Arydes e Adelso Freire
Esse não é o compositor? Avise-nos.
Contribuição: saofidelis Correções: washynogueira e mais 2 »
Exibir acordes »
publicidade
fechar