Permite Que Eu Te Adore

Adriana

 Adriana
Tom: C
		
Intro: F  F/E  Dm  F  G  C


E|-5-3-5-|-5-7-8----|-5-3-5--5-3-1----|
B|-6-5-6-|-6-8-10-6-|-6-5-6--6-5-3--5-|
G|----------------7-|---------------5-|
D|------------------------------------|
A|------------------------------------|
E|------------------------------------|


C		G/B         Am            Am/G
Permite que eu te toque apenas uma vez
F	   C/E               Dm           Dm/C
Permite que eu te fale apenas um instante
G/B	           G	       G/F      C    Dm
Permite que eu me atire em teus braços
                    Dm/C         G4    G
E deixa que eu te entregue o meu cansaço

C            G/B         Am         Am/G
Permite que eu me abra um pouco mais
F              C/E             Dm         Dm/C
Permite que eu derrame a minha vida em Ti
G/B           G              G/F       C
Perdoa-me  Senhor  se eu não sei rezar
Dm             Dm/C             G4       G
Me acolhe  meu Jesus  se acaso eu chorar

        F                        G/F
Quantas vezes eu julguei não ser digno de Ti
      Em                   Am
Contemplando tua face hoje descobri
      F                  C/E     Dm
Se eu te tocar não posso te manchar
     F                 G4        G    C
O poder é teu e é o Senhor quem pode me limpar

          F                             G             C
Creio em ti  Jesus  sei que podes me livrar do meu pecado
        F          G           Am
Contemplando-te me sinto ser lavado
    F                   G4    G
Em Tua presença sou abençoado

         F               F/A          G/B         C
Creio em ti  Jesus  para sempre eu te bendirei e adorarei
       F          G          Am
Pois o Teu amor hoje curou a minha dor
       Dm           G        C  (Riff 1)
Com os anjos eu te glorificarei

Riff 1:
E|------|
B|-10\8-|
G|------|
D|------|
A|------|
E|------|

C           G/B         Am              Am/G   (Riff 2)
Permite que eu te adore um segundo mais
Riff 2:

E|------------|
B|--------5---|
G|-7p5-7---5~-|
D|------------|
A|------------|
E|------------|

F           C/E           Dm               Dm/C
Permite que os meus erros fiquem para trás
G/B                 G           G/F      C (Riff 3)
Permite que eu me atire em teus braços
Riff 3:

E|---------|
B|---------|
G|-7p5-5~--|
D|---------|
A|---------|
E|---------|

Dm                  Dm/C         G4      G
E deixa que eu Te entregue o meu cansaço

Solo: C  Dm  Am  G  C


E|---------------------|
B|---------------------|
G|-5~----5-7-7/9-7-5---|
D|----5-5-----------7--|
A|---------------------|
E|---------------------|



E|-----------------------------------------------------|
B|-------------------8/10-8-------------------10-8-----|
G|-----5h7-5~----5-7--------7p5-7-5-4-5---7-5------9-7-|
D|-5h7--------5-5--------------------------------------|
A|-----------------------------------------------------|
E|-----------------------------------------------------|
21.283 exibições

Comentários 0

Composição: Dalvimar Gallo
Esse não é o compositor? Avise-nos.
Contribuição: obama Correções: Sasuke »
Exibir acordes »
publicidade
fechar