Solo de Baixo

Aero Zeppelim

Sem foto do Aero Zeppelim
|----------------------|
|----------------------|
|------3h5-------------|
|0-0-0-----5-5-5-3-3-3-| [3x]

|----------------------|
|----------2-----------|
|------3h5---3-2b~~~~--|
|0-0-0-----------------| [2x]

|----------------------|
|----------0-0-0-------|
|------3h5---3-2-------|
|0-0-0-----------------| [1x]

|-----------------------|
|-----------------------|
|------3-3-3------------|
|-3-3-3------5-5-5-3-3-3|

|----------------------|
|----------------------|
|-------3-5-3----------|
|-0-3-5-------5b~~~~~--|

|-----------------------------------------------|
|-----------------------------------------------|
|-8-8-8-10-8------------------------------------|
|------------10-10-10-12-10-7-7-7-9-7-4-4-4-6-4-|
1.415 exibições

Comentários 0

Composição: Sabe quem é o compositor? Envie pra gente. Contribuição: Curry
Consegui tocarAinda não conseguiram tocar essa música. Seja o primeiro!
    Não consegui tocar
    publicidade
    fechar