Dream On

Aerosmith

 Aerosmith
Tom: C
		
Intro:

E|-4---|-4---| |-3--|-3--| |-4--|-4--| |-3--|-3--|
B|-6---|-6---| |-4--|-4--| |-3--|-3--| |-2--|-2--|
G|---5-|---5-| |---5|---5| |---5|---5| |---5|---5|
D|-----|-----| |----|----| |----|----| |----|----|
A|-----|-----| |----|----| |----|----| |----|----|
E|-----|-----| |----|----| |----|----| |----|----|



E|-4---|-4---|-6----6----|-8----8----8--|
B|-6---|-6---|-6----6----|-6----6----6--|
G|---5-|---5-|---5-----5-|---5----5----5|
D|-----|-----|-----------|--------------|
A|-----|-----|-----------|--------------|
E|-----|-----|-----------|--------------|



E|-4---|-4---| |-3--|-3--| |-4--|-4--| |-3--|-3--|
B|-6---|-6---| |-4--|-4--| |-3--|-3--| |-2--|-2--|
G|---5-|---5-| |--5-|--5-| |--5-|--5-| |--5-|--5-|
D|-----|-----| |----|----| |----|----| |----|----|
A|-----|-----| |----|----| |----|----| |----|----|
E|-----|-----| |----|----| |----|----| |----|----|



E|-4---|-4---|-6----6----|-8----8----|-6--4--6--8--8--6--4|
B|-6---|-6---|-6----6----|-6----6----|--------------------|
G|---5-|---5-|---5----5--|---5----5--|-5--5--5--5--5--5--5|
D|-----|-----|-----------|-----------|--------------------|
A|-----|-----|-----------|-----------|--------------------|
E|-----|-----|-----------|-----------|--------------------|


Verso 1:

E|-4---|-4---| |-3--|-3--| |-4--|-4--| |-3--|-3--|
B|---6-|---6-| |---4|---4| |---3|---3| |---2|---2|
G|-5---|-5---| |-5--|-5--| |-5--|-5--| |-5--|-5--|
D|-----|-----| |----|----| |----|----| |----|----|  (5x)
A|-----|-----| |----|----| |----|----| |----|----|
E|-----|-----| |----|----| |----|----| |----|----|


Iterludio:
      3x

E|------------|
B|------------|
G|------------|
D|--9--5--3--5|
A|--9--5--3--5|
E|--5--3--1--3|



E|------------|---------------|
B|------------|---------------|
G|------------|-------------5-|
D|-5-5-5-5-5-5|---------5-7--7|
A|-5-5-5-5-5-5|-----5-7-------|
E|-3-3-3-3-3-3|-5-7-----------|


Verso 2:

E|-4---|-4---| |-3--|-3--| |-4--|-4--| |-3--|-3--|
B|---6-|---6-| |---4|---4| |---3|---3| |---2|---2|
G|-5---|-5---| |-5--|-5--| |-5--|-5--| |-5--|-5--|
D|-----|-----| |----|----| |----|----| |----|----|  (5x)
A|-----|-----| |----|----| |----|----| |----|----|
E|-----|-----| |----|----| |----|----| |----|----|


Refrão:

E|------------|
B|------------|
G|------------|
D|--7--5--3--5|  (4x)
A|--7--5--3--5|
E|--5--3--1--3|


Refrão 2:

E|------------|
B|------------|
G|------------|
D|--7--5--3--5|  (2x)
A|--7--5--3--5|
E|--5--3--1--3|


Ponte 1:

E|-12-12-12-12-12-10-------------------------|
B|------------------12-10--------------------|
G|-----------------------12-10---------------|
D|----------------------------12-10----------|
A|---------------------------------12-10-----|
E|--------------------------------------12-10|



E|--------------|----------------------5-7-7-7-7|
B|--------------|------------------5-7----------|
G|--------------|-------------5--7--------------|
D|-3-5-7-9-11-12|----------5---7----------------|
A|-3-5-7-9-11-12|-7-5--5-7---7------------------|
E|-1-3-5-7-9--10|----7--------------------------|


Ponte 2:

E|--------------|
B|--------------|
G|--------------|
D|-3-5-7-9-11-12|  (2x)
A|-3-5-7-9-11-12|
E|-1-3-5-7-9--10|


Refrão 3:

E|------------|
B|------------|
G|------------|
D|--7--5--3--5|   (4x)
A|--7--5--3--5|
E|--5--3--1--3|


Final:

E|------------|
B|------------|
G|------------|
D|-5-5-5-5-5-5|
A|-5-5-5-5-5-5|
E|-3-3-3-3-3-3|
Texto Colunas
Alterar tom ½ tom ½ tom
afinação acordes na letra esconder tabs mais »

Comentários (49)

  • alexandre_saca alexandre_saca: Postado em 27/06/2013 11:29

    Pessoal, apenas a introdução está certa, do resto ignorem, sei que a intenção é boa, mas não condiz com a música, abraço!

  • arthur arthur: Postado em 18/04/2013 04:07

    video aula rápido por favor

  • neto_1014 neto_1014: Postado em 04/02/2013 22:09

    cifra errada , tirei de ouvido o refrão é fá menor ( faz na 8° casa) ré sustenido , dó sustenido , ré sustenido

  • neto_1014 neto_1014: Postado em 04/02/2013 22:06

    refrão : Fm , D

  • heavy_metal_07 heavy_metal_07: Postado em 28/01/2013 23:36

    Só acho q ta meio errado isso '-'

  • mazzolo mazzolo: Postado em 25/01/2013 17:07

    A tab me parece um tanto diferente da musica!!

  • Janis Janis: Postado em 10/01/2013 19:04

    ''-'' A músicaa é baba pra mim que sou iniciante, não sei como tem gente ainda pedindo ''video aulaa''

    • gustavo gustavo: Postado em 07/02/2013 22:13

      é muito facil

    • gustavo gustavo: Postado em 07/02/2013 22:14

      tambem sou iniciante

  • baixistagustavo baixistagustavo: Postado em 09/01/2013 12:46

    video aula

Exibindo 10 de 49 comentários Mostrar mais ver todos »
Composição: Hebert Vianna / Steven Tyler
Esse não é o compositor? Avise-nos.
Contribuição: ari Correções: Mary e mais 1 »
  1. Tudo Que Você Quiser - Luan Santana Manteve-se 6.028 exibições
  2. Lepo Lepo - Psirico Manteve-se 4.297 exibições
  3. Pra Você - Onze:20 Manteve-se 4.147 exibições
  4. Mozão - Lucas Lucco Manteve-se 4.130 exibições
  5. Logo Eu - Jorge e Mateus Manteve-se 3.983 exibições
  6. Gaveta - Fernando e Sorocaba Manteve-se 3.779 exibições
  7. Só Os Loucos Sabem - Charlie Brown Jr. Manteve-se 3.131 exibições
  8. Tempo Perdido - Legião Urbana Manteve-se 2.706 exibições
  9. Fui Fiel - Gusttavo Lima Manteve-se 2.673 exibições
  10. Domingo de Manha - Marcos e Belutti Manteve-se 2.465 exibições
  1. Jorge e Mateus- Manteve-se 23.782 exibições
  2. Legião Urbana- Manteve-se 21.512 exibições
  3. Charlie Brown Jr.- Manteve-se 17.212 exibições
  4. Luan Santana- Manteve-se 17.149 exibições
  5. Fernandinho- Manteve-se 15.105 exibições
  6. Thalles Roberto- Manteve-se 11.065 exibições
  7. Católicas- Manteve-se 10.946 exibições
  8. Gusttavo Lima- Manteve-se 10.939 exibições
  9. Victor e Leo- Manteve-se 10.661 exibições
  10. Bruno e Marrone- Manteve-se 10.324 exibições
Exibir acordes »

Cifras e tabs

Fórum Cifra Club

Aprenda

Cifra Club News

Mais Serviços Cifra Club ID

Studio Sol

©1996 - 2014 Cifra Club · o primeiro, maior e mais acessado do Brasil · 329 mil músicas · 6.0 milhões pessoas cadastradas

publicidade
fechar