Meu Ébano

Alcione

 Alcione
Tom: C
		
Intro:

E|--------------------------
B|--------------------------
G|--------------------------
D|--------------------------
A|-6-5-3-----6--5-3---------
E|-------6-5--------6-5-3~~-




E|6-6--5-3----6-6--5-3------
B|---------3-----------3----
G|--------------------------
D|--------------------------
A|--------------------------
E|--------------------------



E|8-8--6-5----8-8--6-5---8--
B|--------------------------
G|----------7----------7---7
D|--------------------------
A|--------------------------
E|--------------------------



E|8-8-6-5-8--11/13-11-10~8-10
B|---------------------------
G|---------------------------
D|---------------------------
A|---------------------------
E|---------------------------



Gm7                              Cm7
É você é um negão de tirar o chapéu
                                       F7
Não posso dar mole se não você ... creu

Me ganha na manha e babau,
      Bb7M      Am7(b5) D7(9-/13-)
Leva meu coração.
Gm7                           Cm7
É, você é um Ébano lábios de mel
                               F7
Um príncipe negro, feito a pincel
                              Bb7M 
É só melanina cheirando a paixão.

Cm7              F7             Bb7M
É, será que eu cai na sua rede ainda não sei
     Eb7M(9)              Am7(b5)
Sei não, mas to achando que já dancei
    D7(b9/b13)         Gm7   Dm7(b5) G7(b9)
Na tentação da sua cor

Cm7                    F7              Bb7M
Pois é, me pego toda hora querendo te ver
                 Eb7M(9)             Am7(b5)
Olhando pras estrelas pensando em você
                 D7(b9)               G Bm C/E D/F#
Negão eu to com medo que isso seja amor.

G                      G7M                G6
Moleque levado, sabor de pecado, menino danado
            G7M               Em7         Am7
Fiquei balançada, confesso, quase perco a fala
          D7               G   D/F#
Com seu jeito de me cortejar
     Bm        C/E   D/F#
Que nem mestre-sala.

G                           G7M
Meu preto retido, malandro distinto
               G6
Será que é instinto.
                G7M         Em7           Am7
Mas quando te vejo enfeito meu beijo, retoco o baton
      D7                    Am7
A sensualidade da raça é um dom
            D7                G   D7   Eb7M(9) D7(b9/b13) Gm7(9)
É você, meu ébano é tudo de bom!!!

Comentários 1

  • : Postado em 13/03/2014 14:18

    Show!!!

Composição: S. Porcaro / Vinnie Amico
Esse não é o compositor? Avise-nos.
Contribuição: Gil Correções: giron e mais 2 »
Exibir acordes »
publicidade
fechar