Ambrosia

Alesana

 Alesana Compositor: Alesana
I saw that the other tabs were pretty wrong and incredibly confusing, so here's mine. 
probably not completely right, this is my first ever tab. If you see anything you know for 
fact is wrong, message me.

G ------------------------------------------|
D ------------------------------------------|
A -----5~-----------------------------------|
D ------------------------------------------|

"A touch of poison steals my fate"
G ---------------------------------------------|
D ---------------------------------------------|
A -----3-1-0-----------------------------------|
D -----------0000000000000x--------------------|

On the 0's up there, I'm not sure how many,
but play it through "The sun himself." then...

"Honors me!"
G --------------------7~--------------------|
D --------------5-7-8-----------------------|
A ------------------------------------------|
D ------------------------------------------|

"Once king of roses, now lord of gold"
G ------------------------------------------|
D ------------------------------------------|
A ------------------------------------------|
D -5555555555555555--3333333333333333-------|

"Blessed with the gift of gilded touch"
I can't really hear it, so I think...
G ------------------------------------------|
D ------------------------------------------|
A ------------------------------------------|
D -1111111111111111--3333333333333333-------|

"The gods themselves envy my hand"
G ------------------------------------------|
D ------------------------------------------|
A ------------------------------------------|
D -5555555555555555--3333333333333333-------|

"Fate weilds its knife to cut the thread"
Can't hear this either...
G ------------------------------------------|
D -3333333333333333--1111111111111111-------|
A ------------------------------------------|
D ------------------------------------------|

"I curse the day my dream became my descent"
G ------------------------------------------|
D ------------------------------------------|
A ------------------------------------------|
D -5555555555555555/12\---------------------|

"Suddenly I long for you, my only love."
G ------------------------------------------|
D ------------------------------------------|
A ------------------5-55x-------5-55x-5-55x-|
D -1111111111111111--------0-00x------------|

"In my perfection I have no want."
G ------------------------------------------|
D ------------------------------------------|
A ------------------------------------------|
D -5555555555555555--3333333333333333-------|

"A folly as a fatal sin."
G ------------------------------------------|
D ------------------------------------------|
A ------------------------------------------|
D -1111111111111111--3333333333333333-------|

"Yet eyes still glint with green untold."
G ------------------------------------------|
D ------------------------------------------|
A ------------------------------------------|
D -5555555555555555--3333333333333333-------|

"Has now become the end of me."
G ------------------------------------------|
D -3333333333333333--1111111111111111-------|
A ------------------------------------------|
D ------------------------------------------|

"I curse the day my dream became my descent."
G ------------------------------------------|
D ------------------------------------------|
A ------------------------------------------|
D -5555555555555555/12\---------------------|

"Suddenly I long for you, my only love."
G ------------------------------------------|
D ------------------------------------------|
A ------------------5-55x-------5-55x-5-55x-|
D -1111111111111111-------0-00x-------------|

"Have I not earned this, the gift of beauty within?
How selfish were the gods to keep their riches from
my rightful treasure? I truly have become one of them
... My fatal flaw."
G ------------------------------------------|
D ------------------------------------------|
A -2-2-2-2-0-0-0-0x-------------------------|
D ------------------0~----------------------| x4

BASS SOLO (HELL YEAH!!!!! >:D)
G ------------------------------------------|
D ---------------------------------------5/6|
A ------5-3-----353----------5-3-----353----|
D -5-0-----3--3----33-11-0-0----3--3--------|
You have to play it with the song to really
get it right.

"Oh yeah! I've got her hook, line, and sinker!
Thanks to me, she's her own new necklace!"
G ------------------------------------------|
D ------------------------------------------|
A ----5-3---------------5-3-----------------|
D -00-----3x--3-5-3--00-----3x--3-5-3-------| x4

"Now she's good as gold!"
G ---------------------7~-------------------|
D ---------------5-7-8----------------------|
A ------------------------------------------|
D ------------------------------------------|

"I curse the day my dream became my descent."
G ------------------------------------------|
D ------------------------------------------|
A ------------------------------------------|
D -5555555555555555/12\---------------------|

"Suddenly I long for you, my only love."
G ------------------------------------------|
D ------------------------------------------|
A ------------------5-55x-------5-55x-5-55x-|
D -1111111111111111-------0-00x-------------|

"I curse the day my dream became my descent."
G ------------------------------------------|
D ------------------------------------------|
A ------------------------------------------|
D -5555555555555555/12\---------------------|

"Suddenly I long for you, my only love."
G ------------------------------------------|
D ------------------------------------------|
A ------------------5-55x-------5-55X-5-55x-|
D -1111111111111111-------0-00X-------------|

"Cut the thread!"
G ------------------------------------------|
D ------------------------------------------|
A ------------------------------------------|
D -5-5-5-5-3-3-3-3-1111111111111111---------|

TA DA! I hope that's right. At least better
than the other ones and less confusing. If you
have any questions at all, feel free to ask.

Comentários 0

Composição: D. Campbell / Exterio / Leiz / Pedro Sá / Shauna Iseult Reynolds / Shawn Milke / T. Dávila / Zacharias Topelius
Esse não é o compositor? Avise-nos.
Consegui tocarAinda não conseguiram tocar essa música. Seja o primeiro!
    Não consegui tocar
    publicidade
    fechar