Brush away

Alice In Chains

 Alice In Chains
Tom: E
		
Intro - and verse riff

|---------------------|
|---------------------|
|----------------6----|     <== guitar 1
|---6---5_6_5-6-------|
|-4---4--------4------|
|---------------------|

(lead w/ vocals)

|-----3^4^3-4------------------| <===guitar 2
|------------------------------|
|------------------------------|
|-----5^6^5-6------------------| <== guitar 3
|------------------------------|
|------------------------------|


Chorus - (as *close* as i can get it)
Heavy palm mutes....

|------------------------------------|------------------------------------|
|------------------------------------|------------------------------------|
|------------------------------------|------------------------------------|
|------------------------------------|---------------2-2-4-4-4-4-4-4-4-4--|
|-2-4-4-5-5-2-2-0-0-4-4-4-4-4-4-4-4--|-2-4-4-5-5-2-2-0-0-2-2-2-2-2-2-2-2--|
|-2-4-4-5-5-2-2-0-0-4-4-4-4-4-4-4-4--|-2-4-4-5-5-2-2----------------------|


Ok the solo is like backwards!! im not gonna tab that yet because
it's *** wierd. This is as much as I can do just now - though the
solo will arrive soon I'll ask Jerry next time I see him   =)

Letra:
Composição: Layne Staley & Jerry Cantrell

I could use some
time to curl away
my aggression 
is where you stake
your claim
why i question
this curve on which you grade
my conception
a joke? or lastest crase? 
i try to get away 
and yet i stick around
so fall and crawl away
and brush away loose ground
my intention
can i arrive at eight
lie and dream some 
surprise you guys i´m late
all right,correction,forgetting something
wait
brush away loose groud
brush away loose groud

Comentários 0

Composição: Anna Qi-Xin / Barnaby Weir / Buck / Claudio Cecchetto / Gilbert / Hope of the States / Jerry Cantrell / Otis Taylor / Riddim Fingaz / Stayve Thomas / Tuta
Esse não é o compositor? Avise-nos.
Contribuição: Taino from Hell
Consegui tocarAinda não conseguiram tocar essa música. Seja o primeiro!
    Não consegui tocar
    Exibir acordes »
    publicidade
    fechar