Poder Pra Salvar

Aline Barros

 Aline Barros
Tom: E
		
Intro: | A | E | C#m | B | - 2x

Riff 1

E|-------------------------------------------|
B|------7--9--------7--9---------------------|
G|--9-----------9---------------------------|
D|-------------------------------------------|
A|-------------------------------------------|
E|-------------------------------------------|


Outro Modo

E|-0---2---4-----0---2---4-------------------|
B|-------------------------------------------|
G|-------------------------------------------|
D|-------------------------------------------|
A|-------------------------------------------|
E|-------------------------------------------| ~Will


Obs: Riff 1 se repete durante toda a musica até o Refrão.

 A            E                 C#m
Todos necessitam de um amor perfeito
    B           A
Perdão e compaixão
          E                     C#m
Todos necessitam de graça e esperança
      B             A   B   A   B
De um Deus que salva


Refrão
E                 B
Cristo move as montanhas
         A          E
E tem poder pra salvar
        C#m        B
E tem poder pra salvar
     E                    B
Pra sempre, Autor da salvação
         A        E
Jesus a morte venceu
         C#m        B
Sobre a morte venceu

| A | E | C#m | B |

A                    E                 C#m
Me aceitas com meus medos,falhas e temores
B            A
Enche meu viver
                E                    C#m
A minha vida entrego Pra seguir teus passos
  B           A  B  A  B
A ti me rendo

Refrão:
E                     B
Cristo move as montanhas
         A          E
E tem poder pra salvar
         C#m       B
E tem poder pra salvar
     E                   B
Pra sempre, Autor da salvação
         A        E
Jesus a morte venceu
        C#m       B
Sobre a morte venceu

Riff 2


E|--12-----------------11--------------------|
B|--12-----------------12--------------------|
G|-------------------------------------------|
D|-------------------------------------------|
A|-------------------------------------------|
E|-------------------------------------------|


| A  E | B  C#m | - 2x

A          E              B
Possa o mundo Ver brilhar a luz
   C#m  A             E           B     C#m
Cantamos para a glória do Senhor Jesus Cristo

Comentários 12

  • Nadila Nadila: Postado em 08/10/2013 21:26

    linda a musica

  • Ayrton Ayrton: Postado em 01/03/2013 09:42

    mt le

    • Nadila Nadila: Postado em 08/10/2013 21:26

      muito legal ne

  • leogimenes leogimenes: Postado em 21/06/2012 11:50

    é

    • Ayrton Ayrton: Postado em 01/03/2013 09:43

      ok

    • Ayrton Ayrton: Postado em 01/03/2013 09:43

      mt legal

  • joniel18 joniel18: Postado em 11/03/2012 11:21

    Uma benção de Deus nas nossas vidas !!!

  • juliano95 juliano95: Postado em 15/12/2011 18:01

    musica mt linda msm, e na voz de uma pessoa abençoada como aline barros fica show !!!!

  • bibinha1234 bibinha1234: Postado em 11/10/2011 17:58

    é esse msm!! andersonriel*
    Essa musica é mt lindaa msm,Cristo move as montanhas e muito mais!!!! Te amo meu senhor!!

  • andersonriel andersonriel: Postado em 22/05/2011 11:42

    gostaria de saber qual é o tom original dessa musica?

    • sergio sergio: Postado em 31/07/2011 21:52

      na versão da Aline Barros o tom é E, e na versão do Hillsong é A.

    • leandro.dossantos.338211 leandro.dossantos.338211: Postado em 07/06/2013 07:49

      Comentário removido

Composição: Versão: Aline Barros de ''Mighty to Save'': Ben Fielding & Reuben Morgan
Esse não é o compositor? Avise-nos.
Contribuição: Lukkkaaasss Correções: samuelbfjunior , gabrielroand e mais 24 »
Exibir acordes »
publicidade
fechar