Sonda-me, Usa-me

Aline Barros

 Aline Barros
Tom: G
		
Intro:

E|---8-8--10-10----8-8--10-12-10-----8-8--10--12~13-12--10---8-----10-8-7-8--
B|-8------------8-----------------8-----------8------------------------------
G|---------------------------------------------------------------------------
D|---------------------------------------------------------------------------
A|---------------------------------------------------------------------------
E|---------------------------------------------------------------------------



E|-------------------------------------------------------------------------------
B|----------------------5~6-5----------------------------------------------------
G|----5-5--7-7--5-------7--5-----------5-7- 5------------------7-5-4-------------
D|--5--------------------------      5~7----------------5~7----------------------
A|-------------------------------------------------------------------------------
E|-------------------------------------------------------------------------------


  Transforma-me conforme a Tua Palavra | E enche-me, até que em mim, Se ache só a Ti

E|------------------------------------------------------------------------------------------
B|---------------------------------5~6-5------------------------------------6~7-6-----------
G|---------5 5---7---7---5--------------------------5-5--7-7~9 7------------9-7-5-----------                                                                           D |---5 5-----------------------------------5~7---------------------------------------------
A|------------------------------------------------------------------------------------------
E|------------------------------------------------------------------------------------------


  Então Usa-me , Senhor !! Usa-me..

E|---------------------------------------------------------------------------
B|--------------- 6~8-----------8~10--8-8------------------------------------
G|-4------4~5------- 4-------------------------------------------------------
D|---5~7--------------------7------------------------------------------------
A|---------------------------------------------------------------------------
E|---------------------------------------------------------------------------


Refrão:

E|---5-7-8--8-8--7-7--5-5----7~8--8-8-7-7-5-5-------------------------------------------------------------------------
B|-8----------------------8-------------------------------------8-8~10-10-10-8-8-8-8-8-10-10-10-10---8-8-10-10~12----
G|--------------------------------------------------------------------------------------------------------------------
D|--------------------------------------------------------------------------------------------------------------------
A|--------------------------------------------------------------------------------------------------------------------
E|--------------------------------------------------------------------------------------------------------------------



E|---7~8--8-8--7-7---------------7~8--8-8--7-7---------------------------------------------------------------------------
B|-8---------------------10-10-8---------------------------10-10-8--8~10--10-10--8-8-------------------------------------
G|-----------------------------------------------------------------------------------------------------------5-5---------
D|-----------------------------------------------------------------------------------------------------------------------                                           
A|-----------------------------------------------------------------------------------------------------------------------
E|-----------------------------------------------------------------------------------------------------------------------



E|---------------------------------------------------------------
B|---8--8~10--10-10--8-8--6-6~5-----------------8~10--8-8--------
G|-5---------------------------------------------5-7~9)----------
D|---------------------------------------------------------------
A|---------------------------------------------------------------
E|---------------------------------------------------------------



E|-------------|---------------|----------------|---------------------------------------
B|-------------|---------------|----------------|---------------------------------------
G|-5~7--5--7~(b9)|-7--5~7--5--7~9|--(b9)(b9)-9~10--7--|-7~(b9)-10-7--5--4~5---12-12-12--  (4x)
D|-------------|---------------|----------------|---------------------------------------
A|-------------|---------------|----------------|---------------------------------------
E|-------------|---------------|----------------|---------------------------------------



E|-------------|---------------|----------------|---------------------------------------
B|-------------|---------------|----------------|---------------------------------------
G|-5~7--5--7~(b9)|-7--5~7--5--7~9|--(b9)(b9)-9~10--7--|-7~(b9)-10-7--5--4~5---12-12-12--     (2x)
D|-------------|---------------|----------------|---------------------------------------
A|-------------|---------------|----------------|---------------------------------------
E|-------------|---------------|----------------|---------------------------------------


Final:

E|---8-8--10-10----8-8--10-12-10-----8-8--10--12~13-12--10---8-----10-8-7-8--
B|-8------------8-----------------------------8------------------------------
G|---------------------------------------------------------------------------
D|---------------------------------------------------------------------------
A|---------------------------------------------------------------------------
E|---------------------------------------------------------------------------

Comentários 5

  • reuller.caetano reuller.caetano: Postado em 27/03/2014 16:11

    Coloca a video aula da versão instrumental é melhor pra aprender....

  • luhmalik luhmalik: Postado em 15/08/2013 13:55

    ta td errado manow... conserta aew

  • guitaheroh guitaheroh: Postado em 12/04/2013 19:45

    Tudo Errado AFS

  • Daniel Daniel: Postado em 30/03/2013 23:28

    isso tá uma porcaria

  • asafi asafi: Postado em 22/11/2012 08:35

    QUERO A VIDEO AULA E TABLATURA COMPLETA DA MUSICA SANTO NA VERSÃO DO PG

Composição: Aline Barros / Edson Feitosa / Ana Feitosa
Esse não é o compositor? Avise-nos.
Contribuição: alefeestudante
Exibir acordes »
publicidade
fechar