Sou Mais Que Vencedor

Aline Barros

 Aline Barros
Tom: B
		
RIFF

E|------------------------------------
B|------------------------------------
G|------------------------------------
D|------------------------------------
A|-----------------------6-----6---6--
E|-4-4-7-4-4-7-4-7---7-7---7-7---7----




E|------------------------------------
B|------------------------------------
G|------------------------------------
D|------------------------------------
A|-----4-----4---4--------------------
E|-6-6---6-6---6-----4-4-7-4-4-7-4-7-- (2x)


INTRO: E  B/D#  F#  C# 2X
Ôoo Ôoo

G#m    E 	B     F#
Nada vai me impedir
G#m    E 	       B     F#
Eu sou mais que vencedor
G#m         E 	            B     F#
Quem poderá me impedir
G#m         E 	                   B         F#
Se o meu Deus por mim está lutando
G#m
Posso derrubar muralhas
      E
Ao som da adoração
    B     	F#
E elas cairão e elas cairão
G#m    		E
Gigantes não me intimidarão
       B     		F#
Vencerei na unção, na unção
E		    F#
Estou protegido por todos os lados
G#m
Em cima, embaixo
E		F#
Na frente, atrás

Sozinho jamais
G#m
Estou revestido
		E
Deus está comigo
		B	       D#m
Sai da minha frente, inimigo
		G#m		      E
Eu piso em serpentes e escorpiões
		B			D#m
Deus está comigo até na cova de leões
G#m    E
Ôoo Ôoo
B
Sou mais que vencedor
F#
Sou mais que vencedor




E|---4-2-4--7----2-4-2-4--7-9---4-2-4--7---2-4-2-4
A|------------------------------------------------
D|------------------------------------------------   (5x)
G|------------------------------------------------
B|------------------------------------------------
E|------------------------------------------------   Na 3º vez tem um contra
5.936 exibições

Comentários 0

Composição: Gislaine e Mylena
Esse não é o compositor? Avise-nos.
Contribuição: Josue Correções: Nathan »
Exibir acordes »
publicidade
fechar