Vitória No Deserto

Aline Barros

 Aline Barros
Primeira Parte e Pré Refrão:
G|-----------------------------------------------------
D|-----------------------------------------------------   
A|----------3-3/5-5-5-------7-7-7-5-3-*-3-*-3h5--------
E|-3-3-3-----------------7-----------------------------


Refrão: aquela parte que fica "Por isso eu pulo pulo...
G|-----------------------------------------------------
D|-----------------------------------------------------    
A|-----------3-5-5-5-5------7-7-7-5-3-*-3-*-3h5---------        
E|-3-3-3-3--------------7-------------------------------

Comentários 1

  • cafeh cafeh: Postado em 06/12/2012 13:59

    cade o riff q tem depois q acaba a 1ª parte

Composição: D. Ramos / Steve Boone
Esse não é o compositor? Avise-nos.
Contribuição: thiagomendes19 Correções: bola30 »
publicidade
fechar