Fall Victim

Alkaline Trio

 Alkaline Trio
Tom: A
		
FALL VICTIM
CRIMSON

This is off their new album due out may 24th, listen to the song to work out the 
pattern, another great song of the new cd.
INTRO

e|----------------------------------|
B|----12-10-------------------------|
G|--9--9--7-------------------------|
D|--7-------------------------------| x
A|----------------------------------|
E|----------------------------------|


VERSE

e|----------------------------------|
B|----------------------------------|
G|-----7----------------------------|
D|--4--7--7-------------------------| x 3
A|--4--5--7-------------------------|
E|--2-----5-------------------------|


END OF VERSE

e|----------------------------------|
B|----------------------------------|
G|-----7--9--7----------------------|
D|--4--7--9--7----------------------| x 1
A|--4--5--7--5----------------------|
E|--2-------------------------------|


CHORUS
    (i)        (ii)

e|----------|-----------------------|   play part (i)x 2 then part (ii) x 2
B|----------|-----------------------|
G|-----6--7-|--9--6--7--------------|
D|--7--6--7-|--7--x--x--------------|
A|--7--4--5-|--0--4--5--------------|
E|--5-------|-----------------------|


VERSE

END OF VERSE x 1

CHORUS

VERSE

BRIDGE

e|----------------------------------|
B|----------------------------------|
G|--6--7--9--7--6--7--9--4--9-------|
D|--x--x--x--x--x--x--7--x--7-------| thats the notes but i think the order
A|--4--5--7--5--4--5--0--2--0-------| might be wrong so try and work it out
E|----------------------------------| from the notes there, its not overly

                                      wrong though.

CHORUS

BRIDGE


For corrections email me at *

Comentários 0

Composição: Alkaline Trio / Rosa Passos / Taj Jackson
Esse não é o compositor? Avise-nos.
Consegui tocarAinda não conseguiram tocar essa música. Seja o primeiro!
    Não consegui tocar
    Exibir acordes »
    publicidade
    fechar