Blusa Amarela

Amado Edílson

Sem foto do Amado Edílson Compositor: Amado Edilson
Tom: C
		

E |-----------12-12-10-10h12-12----10--
B |-13-13-13---------------------------
G |------------------------------------
D |------------------------------------
A |------------------------------------
E |------------------------------------



E |--------12-12-10-10h12--------10-10------------------
B |-13----------------------13-13------------13-13--12--
G |-----------------------------------------------------
D |-----------------------------------------------------
A |-----------------------------------------------------
E |-----------------------------------------------------



E |------------------------
B |-8h10-8-----------------
G |-------------7h9-7------
D |------------------------
A |------------------------
E |------------------------



E |-10-10-10-10-10--12-13-13--12-12-10-8-8--
B |------------------------------------------
G |------------------------------------------
D |------------------------------------------
A |------------------------------------------
E |------------------------------------------



E |-----------------10/12-12-10-10---------
B |-10--8-8-8-8-------------------------13--
G |----------------------------------------
D |----------------------------------------
A |----------------------------------------
E |----------------------------------------


(solo base) C G F G C

                 C
Vocês estão vendo aquela
                                          G
mulher da blusa amarela e a saia de outra cor
                 F                      G
vendo ela desprezada, lembraste que foi amada
                    C
já foi meu primeiro amor

                    G
Já foi meu primeiro amor
                    C
Já foi meu primeiro amor

(intro 2x) G C

                  C
Vocês estão vendo aquela
                                          G
mulher da blusa amarela e a saia de outra cor
                      F                      G
Quem a ver tão desprezada, lembraste que foi amada
                    C
já foi meu primeiro amor

                    G
Já foi meu primeiro amor
                    C
Já foi meu primeiro amor

                    C
No tempo que eu lhe amava
                                          G
sorridente ela andava, e eu lhe enchia de amor
                F                        G
por causa de conversinha, de fofoca de amiguinhas
                C
essa mulher me deixou

                 G
essa mulher me deixou
                 C
essa mulher me deixou

                  C
Não acreditou em mim
                                                 G
tanto que eu lhe dei carinho, pra ela foi tudo em vão
                    F                           G
nosso amor era tão louco, mas por conversa dos outros
                  C
ela me fez essa traição

                  G
ela me fez essa traição
                  C
ela me fez essa traição

                       C
Por causa de uma falsa amiga
                                   G
deixou uma boa vida, pra morar no cabaré
                   F                      G
passando de mão em mão, se vendendo por tostão
                    C
pra ficar com quem quiser

                    G
pra ficar com quem quiser
                   C
ficando com quem quiser

                  C
Não pensava que aquela mulher da blusa amarela
                  G
me fizesse essa traição
                F                        G
mas o destino é cruel, ela deixou de ser fiel
                   C
pra viver de mão em mão

                    G
pra viver de mão em mão
                    C
pra viver de mão em mão

                  C
Minha família tentava, pra ver se eu me conformava
                    G
com o disgosto que passei
                 F                     G
foi três anos de terror, acreditando no amor
                      C
e ter passado o que eu passei

                       G
e ter passado o que eu passei
                       C
e ter passado o que eu passei

               C
Não podia ver aquela mulher da blusa amarela
                     G
que eu pensava em me matar
                    F                         G
meu disgosto era demais, comprei logo minha passagem
              C
e sai daquele lugar

               G
e sai daquele lugar
               C
e sai daquele lugar

                     C
Mas a lei de deus não tarda, o que se faz aqui se paga
               G
essa mulher me pagou
               F                        G
hoje vive sem ninguem, nem casa pra morar tem
                  C
e nem quem lhe dê amor

                   G
e nem quem lhe dê amor
                  C
e nem quem lhe dê amor

                  C
Doente em cima da cama, chorando meu nome chama
            G
mas a vida continua
                      F                      G
deixou de ser mulher casada, para ser mulher amada
                    C
dos malandrecos das ruas

                    G
dos malandrecos das ruas
                    C
dos malandrecos das ruas

                C
Eu tenho pena daquela mulher da blusa amarela
                 G
e a saia de outra cor
              F                   G
a doença lhe rendeu, seu corpo enfraqueceu
                  C
morreu sem ter um amor

                  G
morreu sem ter um amor
                  C
morreu sem ter um amor

                C
Eu tenho pena daquela mulher da blusa amarela
                 G
e a saia de outra cor
              F                   G
a doença lhe rendeu, seu corpo enfraqueceu
                  C
morreu sem ter um amor

                  G
morreu sem ter um amor
                      C
E deixou livre o seu cantor
19.452 exibições

Comentários 0

Composição: Amado Edilson
Esse não é o compositor? Avise-nos.
Contribuição: Ronnis
Consegui tocarAinda não conseguiram tocar essa música. Seja o primeiro!
    Não consegui tocar
    Exibir acordes »
    publicidade
    fechar