Gemedeira

Amelinha

 Amelinha Compositor: Robertinho do Recife / Capinan
Tom: D
		
(intro)  F#m G A Bm


E|---2-3-5-5-3-2------2-3-5-5-3-2----2-3-5-5-3-2-------2----------|
B|-3-------------3-----------------3-------------3---3----5-3-2---|
G|-----------------4-------------------------------4------------4-|
D|----------------------------------------------------------------|
A|----------------------------------------------------------------|
E|----------------------------------------------------------------|



E|--------------|
B|--------------|
G|-4-2---4------|
D|-----4--------|
A|--------------|
E|--------------|


 F#m                G
Tava eu mirando a lua
        A       Bm
Veio a moça me olhar
    F#m            G
Perguntei se era nova
      A           Bm
Não custou me apaixonar
     Em            F#m
Num cavalo de São Jorge
     G        A
Já mulher a galopar
        Em       F#m
Sete léguas de paixão
      G       A   Bm
Sem parar de suspirar
        F#m      G
Tava tocando a viola
       A          Bm
Num galope à beira mar
    F#m                 G
Ai, ai, ai, é bom que dói
        A             Bm
Ui, ui, ui, chega a sangrar
 Em                   F#m
Gemedeira é que nem beijo
   G             A
Começou custa a parar
      Em             F#m
Ela olhou, pediu um xote
      G      A       Bm
Pra gemer bastou te amar
        F#m        G
Tava sentado na pedra
         A      Bm
Veio o dono reclamar
   F#m                   G
Perguntou pra ver quem era
       A          Bm
Não custou me apresentar
         Em         F#m
Com cem tiros de pistola
       G        A
Sete furos de punhal
        Em        F#m
Sou violeiro, patrão
     G       A    Bm
Ele não pôde escutar
5.769 exibições

Comentários 0

Composição: (Robertinho do Recife e Capinan)
Esse não é o compositor? Avise-nos.
Contribuição: Negreiros
Consegui tocarAinda não conseguiram tocar essa música. Seja o primeiro!
    Não consegui tocar
    Exibir acordes »
    publicidade
    fechar