Hora de Vencer

André Felipe

 André Felipe
Tom: C
		

 Intro 2x: C  G/B  Am  G F  C Dm G4  G
E|-10h12-10---7-7h8---10h12-10---7-7h8---12h13-12--10-8-8h10------5-7-8-7-5-3-----------|
B|------------------------------------------------------------------------------3-3h5-5-|
G|--------------------------------------------------------------------------------------|
D|--------------------------------------------------------------------------------------|
A|--------------------------------------------------------------------------------------|
E|--------------------------------------------------------------------------------------|



E|-----------------------------------------------|
B|-3h5-3-------3h5-3-------5h6-5-----------------|
G|-------4-4h5-------4-4h5-------7-5-5h7-5-4-----|
D|-------------------------------------------7-5-|
A|-----------------------------------------------|
E|-----------------------------------------------|


C  G/B     Am
Eu vou te usar
   G    F     C      Dm       G4     G    C
Te exaltar todos vão ver O milagre acontecer (x2)


 ( C  G/B  Am  G  F )
E|----------------------------------|
B|----1-1h3-1-0-0h1---1-1h3-1-0-0h1-|
G|--0---------------0---------------|
D|----------------------------------|
A|----------------------------------|
E|----------------------------------|


C               Am
 Deus vai te ajudar
                 F  C
Ele vai te levantar
        Dm                  F                G
Vai cumprir a promessa que fez a um tempo atrás
                 C
No meio da multidão
                         Am  G
Deus vai te estender as mãos
    Dm
Te pegar no colo
   F                G
Curar as feridas do te coração
         Dm               F                 G
Você se lembra quando chorava clamando por mim
  Dm                  C             G
Dizendo bem alto que não aguentava ficar sempre assim
               C
Mas eu estava lá
          Am
Vi você chorar
           Dm              G4       G     C
Dizendo Te amo Senhor  Te amo Senhor
              G/B              Am
Voce é o meu filho que eu amo tanto
      G             F
E pra ti eu tenho planos
       C       Dm
Eu vou te abençoar
      F          C
Onde que você pisar
         G/B        Am
Atravessarei esse deserto
        G           F
Sempre estarei por perto
      C            Dm
Precisando é só chamar
           G      C
Vou te ajudar passar
                                 Am
E mesmo que as forças venham se acabar
                              F
E todos seus amigos te abandonar
                        Dm
E quando não há o que fazer
               G          C
Eu tenho uma saída pra você
                                  Am
Aqueles que pensaram que você perdeu
                                F
Nenhum valor te deram coração doeu
                C                  Dm
Você fechou os olhos e clamou por mim
                G         C
E disse não é esse o meu fim

     G/B     Am
Deus vai te usar
   G    F     C      Dm       G4     G    C
Te exaltar todos vão ver O milagre acontecer
17.166 exibições

Comentários 1

  • ecm ecm: Postado em 14/10/2011 20:12

    muito bom

Composição: Sabe quem é o compositor? Envie pra gente. Contribuição: JOOW Correções: Guilherme »
Exibir acordes »
publicidade
fechar