Não Posso Pagar

André Valadão

 André Valadão Compositor: André Valadão
Tom: C
		
Intro 2x: G  F C Cm7 Dm

G
    Como eu nasci?
F
    Como cheguei aqui?
C
    Para onde vou?
      Cm7	    Dm
As respostas encontrei no Salvador

G
    Não posso pagar,
Am
    Não posso pagar
               C
Tudo o que eu faço é tão pouco
	  Cm7/Eb	 D9
Diante do preço que foi pago pra me salvar

( G  F C/E  Eb7M  F9 )
 
G
    Jesus se entregou
G/F
    Por mim se humilhou
C/E
    Pagou a minha dívida na cruz
     Eb7M        D
E ali me curou e me salvou

Instrumental:  C9  D Em7  C9  G/B  Am7  D9

C9
    Hoje sei por que nasci
Bm
    A razão do meu existir
Am7
    É maior do que eu mesmo
Bm7	   [stop]	frase  B - A - C
    É di  -  vi  -  no,       não tem fim
C9
    Fui comprado pelo preço
D9
    Mais caro deste mundo
Em	                   frase  B - C - D
    A cada dia estou mais     preso
D
    Na liberdade que hoje tenho

Final:  G   F  C/E  Eb7M   D9

Baixo:  C C C B A F# G
Solo:
(06:10)

E|--------------------------------------------------|
B|-----17-15-14--------------15-14------------------|
G|---------------16-14~--13---------16-14~-13-14-13-|
D|--------------------------------------------------|
A|--------------------------------------------------|
E|--------------------------------------------------|



E|----------------------------------------------------------------------------|
B|--------------------------------------------------14/15-14h15h14h15-15/17~~-|
G|-13-13-14-13-13-16-14-14-13--13-13-14-16-14-13-13---------------------------|
D|----------------------------------------------------------------------------|
A|----------------------------------------------------------------------------|
E|----------------------------------------------------------------------------|

Comentários 0

Composição: André Valadão
Esse não é o compositor? Avise-nos.
Contribuição: WGP Correções: sarete , dukamenezes e mais 2 »
Exibir acordes »
publicidade
fechar