Arising Thunder

Angra

 Angra Compositor: Edu Falaschi / Kiko Loureiro
Tom: G
		
Versão Tocada No Estúdio ShowLivre

(intro) Em Am C D Em Am C  (pequena pausa)
        Am D G C Am ( Bm ) (3x)



|---------7-5--3-2----------7-5-7-8-10---------7-5--3-2----0-5-8-12-|
|-5--3-5-----------3-5--3-5-------------5--3-5----------3-----------|
|-------------------------------------------------------------------|
|-------------------------------------------------------------------|
|-------------------------------------------------------------------|
|-------------------------------------------------------------------|



|-5-7-8--7-5-3--7-7-7-7-5--3-2-0----0-5-8-12--14-15--19-------------|
|---------------------------------3---------------------------------|
|-------------------------------------------------------------------|
|-------------------------------------------------------------------|
|-------------------------------------------------------------------|
|-------------------------------------------------------------------|


Em                   D
Time for your reflection
    Bm                       C
What's the promise you have made?
Em                    D
Destruction of your pride
      Bm                    C
And reconstruction of my name
Em                         D
You betrayed me where's your bravery?
   Bm               C
Now you face your doom
Em                              D
Your fate will be traced by the spear
   Bm                  C
That went tearing through

Am          Bm              C
When you hear the winds of revenge

Em                          D
All of the distance and the chains
    Bm                    C
You put around my damned soul
Em                       D
Right now it's all finished
   Bm                       C
I'm just building your new world
Em                       D
While you navigate in peace
     Bm                       C
And glance at lands you will control
Em                            D
Bewitced you cannot see the route
Bm                      C
And hell where you will go

Am          Bm                C
When you hear the winds of revenge
Am          Bm                C
You will see the goddess crying
Am          Bm
and the boats will sink and now
      C             D
You play my secret game

        Em
Arising Thunder!
G            D            Em
Welcome to me, you fall alone
G            D            Em
Stand up and face me in a fight
G            D                 B
Drowning in tears deep in the storm
                   Em
Once again, once again!
21.841 exibições

Comentários 1

Composição: Edu Falaschi / Kiko Loureiro
Esse não é o compositor? Avise-nos.
Contribuição: Carlos Correções: Lucas e mais 2 »
Exibir acordes »
publicidade
fechar