Carry On

Angra

 Angra
Tom: D
		
Introdução:

(Guitarra 1)

   P.M . .  . . . .  . . . .  . . . .

E|----------------------------------------------------|
B|----------------------------------------------------|
G|---5-4-5----5-4-5----5-4-5----5-4-5--7--7-----------|
D|-7--------7--------7--------7--------7--7-----------|
A|-------------------------------------5--5-----------|
E|----------------------------------------------------|


   P.M . .  . . . .  . . . .  . . . .  . .    . .

E|----------------------------------------------------|
B|----------------------------------------------------|
G|---5-4-5----5-4-5----5-4-5----5-4-5------5------4---|
D|-7--------7--------7--------7------------5------5---|
A|-------------------------------------3-3-3--2-2-2---|
E|----------------------------------------------------|


   P.M . .  . . . .  . . . .  . . . .

E|----------------------------------------------------|
B|----------------------------------------------------|
G|---5-4-5----5-4-5----5-4-5----5-4-5--7--7-----------|
D|-7--------7--------7--------7--------7--7-----------|
A|-------------------------------------5--5-----------|
E|----------------------------------------------------|



E|----------------------------------------------------|
B|-\3~-3-5h6-5~----5--7--9----------------------------|
G|----------------------------------------------------|
D|----------------------------------------------------|
A|----------------------------------------------------|
E|----------------------------------------------------|


   P.M . .  . . . .  . . . .  . . . .

E|----------------------------------------------------|
B|----------------------------------------------------|
G|---5-4-5----5-4-5----5-4-5----5-4-5--7--7-----------|
D|-7--------7--------7--------7--------7--7-----------|
A|-------------------------------------5--5-----------|
E|----------------------------------------------------|


   P.M . .  . . . .  . . . .  . . . .  . .    . .

E|----------------------------------------------------|
B|----------------------------------------------------|
G|---5-4-5----5-4-5----5-4-5----5-4-5------5------4---|
D|-7--------7--------7--------7------------5------5---|
A|-------------------------------------3-3-3--2-2-2---|
E|----------------------------------------------------|


   P.M . .  . . . .  . . . .  . . . .

E|----------------------------------------------------|
B|----------------------------------------------------|
G|---5-4-5----5-4-5----5-4-5----5-4-5--7--7-----------|
D|-7--------7--------7--------7--------7--7-----------|
A|-------------------------------------5--5-----------|
E|----------------------------------------------------|



E|----------------------------------------------------|
B|-\3~-3-5h6-5~----5--7--9----------------------------|
G|----------------------------------------------------|
D|----------------------------------------------------|
A|----------------------------------------------------|
E|----------------------------------------------------|


      T          T       T       T          T

E|-12-17p12p8--------------------------8h12-17p12-----|
B|------------10-13p10--------10-13p10----------------|
G|---------------------9-14p9-------------------------|
D|----------------------------------------------------|
A|----------------------------------------------------|
E|----------------------------------------------------|


   T         T      T      T         T

E|-15p10p7----------------------7h10-15p10\-----------|
B|---------8-12p8--------8-12p8-----------------------|
G|----------------7-12p7------------------------------|
D|----------------------------------------------------|
A|----------------------------------------------------|
E|----------------------------------------------------|



E|----------------------------------------------------|
B|-\3~-3-5h6-5~----5--7--9----------------------------|
G|----------------------------------------------------|
D|----------------------------------------------------|
A|----------------------------------------------------|
E|----------------------------------------------------|



E|-13-12-10-------------------------------------------|
B|----------13-12-10-9-10-12-10-9---------------------|
G|--------------------------------10-9---------10-9-7-|
D|-------------------------------------12-10-9--------|
A|----------------------------------------------------|
E|----------------------------------------------------|



E|----------------------------------------------------|
B|----------------------------------------------------|
G|----------------------------------------------------|
D|-10-9-7-6-7-9-7-6-----------------------------------|
A|------------------8-7-5-----------------------------|
E|------------------------8-7-5-----------------------|


   P.M . . . . . . . .

E|----------------------------------------------------|
B|----------------------------------------------------|
G|----------------------------------------------------|
D|-0-0-0-0-0-0-0-0-0-0-0-0...---------------------2---|
A|-0-0-0-0-0-0-0-0-0-0-0-0...---------------------2---|
E|------------------------------------------------0---|


(Guitarra 2)


E|----------------------------------------------------|
B|----------------------------------------------------|
G|-------------------------------------7--7-----------|
D|-7-------7--------7--------7---------7--7-----------|
A|-7-------7--------7--------7---------5--5-----------|
E|-5-------5--------5--------5------------------------|


                                  P.M.    P.M.

E|----------------------------------------------------|
B|----------------------------------------------------|
G|-------------------------------------9-------7------|
D|-7------7--------7--------7----------x-------x------|
A|-7------7--------7--------7----------x-------x------|
E|-5------5--------5--------5-----8-8-----7-7---------|




E|----------------------------------------------------|
B|----------------------------------------------------|
G|-------------------------------------7--7-----------|
D|-7-------7--------7--------7---------7--7-----------|
A|-7-------7--------7--------7---------5--5-----------|
E|-5-------5--------5--------5------------------------|



E|----------------------------------------------------|
B|----------------------------------------------------|
G|-/10~~-10-12--14--13~~-13--14--16-------------------|
D|----------------------------------------------------|
A|----------------------------------------------------|
E|----------------------------------------------------|


   P.M . .  . . . .  . . . .  . . . .

E|----------------------------------------------------|
B|----------------------------------------------------|
G|---9-7-9----9-7-9----9-7-9----9-7-9--7--7-----------|
D|-7--------7--------7--------7--------7--7-----------|
A|-------------------------------------5--5-----------|
E|----------------------------------------------------|


   P.M . .  . . . .  . . . .  . . . .  . .    . .

E|----------------------------------------------------|
B|----------------------------------------------------|
G|---9-7-9----9-7-9----9-7-9----9-7-9-------9-----7---|
D|-7--------7--------7--------7-------------x-----x---|
A|------------------------------------------x-----x---|
E|-------------------------------------8-8----7-7-----|


   P.M . .  . . . .  . . . .  . . . .

E|----------------------------------------------------|
B|----------------------------------------------------|
G|---9-7-9----9-7-9----9-7-9----9-7-9--7--7-----------|
D|-7--------7--------7--------7--------7--7-----------|
A|-------------------------------------5--5-----------|
E|----------------------------------------------------|




E|----------------------------------------------------|
B|----------------------------------------------------|
G|-/10~~-10-12--14--13~~-13--14--16-------------------|
D|----------------------------------------------------|
A|----------------------------------------------------|
E|----------------------------------------------------|


      T          T       T       T          T

E|-8--12p-8p5--------------------------5h8--12p8------|
B|------------5--10p5---------5-10p5------------------|
G|---------------------5-9p5--------------------------|
D|----------------------------------------------------|
A|----------------------------------------------------|
E|----------------------------------------------------|


   T         T      T      T         T

E|-10p7p3----------------------3h7--10p7\-------------|
B|---------3-8p3--------3--8p3------------------------|
G|----------------4-7p4-------------------------------|
D|----------------------------------------------------|
A|----------------------------------------------------|
E|----------------------------------------------------|



E|----------------------------------------------------|
B|----------------------------------------------------|
G|-/10~~-10-12--14--13~~-13--14--16-------------------|
D|----------------------------------------------------|
A|----------------------------------------------------|
E|----------------------------------------------------|



E|-17-16-13-------------------------------------------|
B|----------17-15-13-12-13-15-13-12-------------------|
G|----------------------------------14-13-10----------|
D|--------------------------------------------14-12---|
A|----------------------------------------------------|
E|----------------------------------------------------|



E|----------------------------------------------------|
B|----------------------------------------------------|
G|-14-13-10-------------------------------------------|
D|----------14-12-10--9-10-12-10-9--------------------|
A|---------------------------------12-11-8------------|
E|-----------------------------------------12-10-8----|


   P.M . . . . . . . . . .

E|----------------------------------------------------|
B|----------------------------------------------------|
G|----------------------------------------------------|
D|-0-0-0-0-0-0-0-0-0-0-0-0...---------------------2---|
A|-0-0-0-0-0-0-0-0-0-0-0-0...---------------------2---|
E|------------------------------------------------0---|


Primeira Estrofe:

      P.M . .       . . . .       . . . .

E|------------------------------------------|
B|------------------------------------------|
G|-2----------2--2----------2--2----------2-|
D|-2----------2--2----------2--2----------2-|
A|-0--0-0-0-0-0--0--0-0-0-0-0--0--0-0-0-0-0-|
E|------------------------------------------|


      P.M . .

E|------------------------------------------|
B|------------------------------------------|
G|-2----------2--7~---7--7------------------|
D|-2----------2--7~---7--7------------------|
A|-0--0-0-0-0-0--5~---5--5------------------|
E|------------------------------------------|


      P.M . .    .  .  .  .

E|------------------------------------------|
B|------------------------------------------|
G|-5----------5-----------------------------|
D|-5----------5-----------------------------|
A|-3--3-3-3-3-3--5--5--5--5-----------------|
E|---------------3--3--3--3-----------------|


      P.M . .       . . . .       . . . .

E|------------------------------------------|
B|------------------------------------------|
G|-2----------2--2----------2--2----------2-|
D|-2----------2--2----------2--2----------2-|
A|-0--0-0-0-0-0--0--0-0-0-0-0--0--0-0-0-0-0-|
E|------------------------------------------|


      P.M . .    .  . . .  . . .  . . .  . .

E|------------------------------------------|
B|------------------------------------------|
G|-2----------2-----------------------------|
D|-2----------2-----------------------------|
A|-0--0-0-0-0-0--3------3------3------3-----|
E|---------------1--1-1-1--1-1-1--1-1-1--1-1|


   P.M.   . .    . .    . .

E|------------------------------------------|
B|------------------------------------------|
G|------------------------------------------|
D|-----7------7-----------------------------|
A|-5-5-5--5-5-5------5------5---------------|
E|---------------3-3-3--3-3-3---------------|


      P.M . .       . . . .       . . . .

E|------------------------------------------|
B|------------------------------------------|
G|-2----------2--2----------2--2----------2-|
D|-2----------2--2----------2--2----------2-|
A|-0--0-0-0-0-0--0--0-0-0-0-0--0--0-0-0-0-0-|
E|------------------------------------------|


      P.M . .

E|------------------------------------------|
B|------------------------------------------|
G|-2----------2--7~---7--7------------------|
D|-2----------2--7~---7--7------------------|
A|-0--0-0-0-0-0--5~---5--5------------------|
E|------------------------------------------|


      P.M . .    .  .  .  .

E|------------------------------------------|
B|------------------------------------------|
G|-5----------5-----------------------------|
D|-5----------5-----------------------------|
A|-3--3-3-3-3-3--5--5--5--5-----------------|
E|---------------3--3--3--3-----------------|


      P.M . .       . . . .       . . . .

E|------------------------------------------|
B|------------------------------------------|
G|-2----------2--2----------2--2----------2-|
D|-2----------2--2----------2--2----------2-|
A|-0--0-0-0-0-0--0--0-0-0-0-0--0--0-0-0-0-0-|
E|------------------------------------------|


      P.M . .    .  . . .  . . .  . . .  . .

E|------------------------------------------|
B|------------------------------------------|
G|-2----------2-----------------------------|
D|-2----------2-----------------------------|
A|-0--0-0-0-0-0--3------3------3------3-----|
E|---------------1--1-1-1--1-1-1--1-1-1--1-1|


   P.M.   . .    . .    . .

E|------------------------------------------|
B|------------------------------------------|
G|------------------------------------------|
D|-----7------7-----------------------------|
A|-5-5-5--5-5-5------5------5---------------|
E|---------------3-3-3--3-3-3---------------|


 A5
Simple minded brain
                D5
For now you succumb
          C5          G5
Nothing changes your way
A5                               F5
   This world insists to be the same
         D5      G5
Based on our mistakes
A5                             D5
   The flowers fade along the road
            C5       G5
Don't blindfold your eyes
A5                            F5
   So loneliness becomes the law
      D5        G5
Of a senseless life


Segunda Estrofe:

                    P.M . .       . . . .

E|------------------------------------------|
B|------------------------------------------|
G|-7~--2------------------------------------|
D|-7~--2---5--5--3----------3--3----------3-|
A|-5~--0---5--5--3----------3--3----------3-|
E|---------3--3--1--1-1-1-1-1--1--1-1-1-1-1-|


             P.M    . .    . .    . .

E|------------------------------------------|
B|------------------------------------------|
G|-5~---------------------------------------|
D|-5~--5--5------3------3------3------3-----|
A|-3~--5--5------3------3------3------3-----|
E|-----3--3--1-1-1--1-1-1--1-1-1--1-1-1-----|


                P.M . .       . . . .

E|------------------------------------------|
B|------------------------------------------|
G|-2~---------------------------------------|
D|-2~--5--5--3----------3--3----------3-----|
A|-0---5--5--3----------3--3----------3-----|
E|-----3--3--1--1-1-1-1-1--1--1-1-1-1-1-----|


   P.M.  .  .

E|------------------------------------------|
B|------------------------------------------|
G|------------------------------------------|
D|-------------2----------------------------|
A|-2--2--2--2--2----------------------------|
E|-0--0--0--0--0----------------------------|


D5               A5       G5       F5
   Follow your steps and you will find
             C5      G5       F5
The unknown ways are on your mind
             A5         G5         F5
Need nothing else than just your pride
         E5
To get there, Go!


Variação da Introdução 1:

(Guitarra 1)

   P.M . .  . . . .  . . . .  . . . .  . .    . .

E|----------------------------------------------------|
B|----------------------------------------------------|
G|---5-4-5----5-4-5----5-4-5----5-4-5------7------7---|
D|-7--------7--------7--------7------------7------7---|
A|-------------------------------------5-5-5--5-5-5---|
E|----------------------------------------------------|


   P.M . .  . . . .  . . . .  . . . .  . .    . .

E|----------------------------------------------------|
B|----------------------------------------------------|
G|---5-4-5----5-4-5----5-4-5----5-4-5------5------4---|
D|-7--------7--------7--------7------------5------5---|
A|-------------------------------------3-3-3--2-2-2---|
E|----------------------------------------------------|


   P.M . .  . . . .  . . . .  . . . .  . .    . .

E|----------------------------------------------------|
B|----------------------------------------------------|
G|---5-4-5----5-4-5----5-4-5----5-4-5------7------7---|
D|-7--------7--------7--------7------------7------7---|
A|-------------------------------------5-5-5--5-5-5---|
E|----------------------------------------------------|



E|----------------------------------------------------|
B|----------------------------------------------------|
G|-/10~~-10-12--14--13~~-13--14--16-------------------|
D|----------------------------------------------------|
A|----------------------------------------------------|
E|----------------------------------------------------|


(Guitarra 2)

   P.M . .  . . . .  . . . .  . . . .  . .    . .

E|----------------------------------------------------|
B|----------------------------------------------------|
G|---9-7-9----9-7-9----9-7-9----9-7-9------7------7---|
D|-7--------7--------7--------7------------7------7---|
A|-------------------------------------5-5-5--5-5-5---|
E|----------------------------------------------------|


   P.M . .  . . . .  . . . .  . . . .  . .    . .

E|----------------------------------------------------|
B|----------------------------------------------------|
G|---9-7-9----9-7-9----9-7-9----9-7-9------9------7---|
D|-7--------7--------7--------7------------x------x---|
A|-----------------------------------------x------x---|
E|-------------------------------------8-8----7-7-----|


   P.M . .  . . . .  . . . .  . . . .  . .    . .

E|----------------------------------------------------|
B|----------------------------------------------------|
G|---5-4-5----5-4-5----5-4-5----5-4-5------7------7---|
D|-7--------7--------7--------7------------7------7---|
A|-------------------------------------5-5-5--5-5-5---|
E|----------------------------------------------------|



E|----------------------------------------------------|
B|--------5h6--5~---5--7--9---------------------------|
G|-/7~~-7---------------------------------------------|
D|----------------------------------------------------|
A|----------------------------------------------------|
E|----------------------------------------------------|


Terceira Estrofe:

      P.M . .       . . . .       . . . .

E|------------------------------------------|
B|------------------------------------------|
G|-2----------2--2----------2--2----------2-|
D|-2----------2--2----------2--2----------2-|
A|-0--0-0-0-0-0--0--0-0-0-0-0--0--0-0-0-0-0-|
E|------------------------------------------|


      P.M . .

E|------------------------------------------|
B|------------------------------------------|
G|-2----------2--7~---7--7------------------|
D|-2----------2--7~---7--7------------------|
A|-0--0-0-0-0-0--5~---5--5------------------|
E|------------------------------------------|


      P.M . .    .  .  .  .

E|------------------------------------------|
B|------------------------------------------|
G|-5----------5-----------------------------|
D|-5----------5-----------------------------|
A|-3--3-3-3-3-3--5--5--5--5-----------------|
E|---------------3--3--3--3-----------------|


      P.M . .       . . . .       . . . .

E|------------------------------------------|
B|------------------------------------------|
G|-2----------2--2----------2--2----------2-|
D|-2----------2--2----------2--2----------2-|
A|-0--0-0-0-0-0--0--0-0-0-0-0--0--0-0-0-0-0-|
E|------------------------------------------|


      P.M . .    .  . . .  . . .  . . .  . .

E|------------------------------------------|
B|------------------------------------------|
G|-2----------2-----------------------------|
D|-2----------2-----------------------------|
A|-0--0-0-0-0-0--3------3------3------3-----|
E|---------------1--1-1-1--1-1-1--1-1-1--1-1|


   P.M.   . .    . .    . .

E|------------------------------------------|
B|------------------------------------------|
G|------------------------------------------|
D|-----7------7-----------------------------|
A|-5-5-5--5-5-5------5------5---------------|
E|---------------3-3-3--3-3-3---------------|


      P.M . .       . . . .       . . . .

E|------------------------------------------|
B|------------------------------------------|
G|-2----------2--2----------2--2----------2-|
D|-2----------2--2----------2--2----------2-|
A|-0--0-0-0-0-0--0--0-0-0-0-0--0--0-0-0-0-0-|
E|------------------------------------------|


      P.M . .

E|------------------------------------------|
B|------------------------------------------|
G|-2----------2--7~---7--7------------------|
D|-2----------2--7~---7--7------------------|
A|-0--0-0-0-0-0--5~---5--5------------------|
E|------------------------------------------|


      P.M . .    .  .  .  .

E|------------------------------------------|
B|------------------------------------------|
G|-5----------5-----------------------------|
D|-5----------5-----------------------------|
A|-3--3-3-3-3-3--5--5--5--5-----------------|
E|---------------3--3--3--3-----------------|


      P.M . .       . . . .       . . . .

E|------------------------------------------|
B|------------------------------------------|
G|-2----------2--2----------2--2----------2-|
D|-2----------2--2----------2--2----------2-|
A|-0--0-0-0-0-0--0--0-0-0-0-0--0--0-0-0-0-0-|
E|------------------------------------------|


      P.M . .    .  . . .  . . .  . . .  . .

E|------------------------------------------|
B|------------------------------------------|
G|-2----------2-----------------------------|
D|-2----------2-----------------------------|
A|-0--0-0-0-0-0--3------3------3------3-----|
E|---------------1--1-1-1--1-1-1--1-1-1--1-1|


   P.M.   . .    . .    . .

E|------------------------------------------|
B|------------------------------------------|
G|------------------------------------------|
D|-----7------7-----------------------------|
A|-5-5-5--5-5-5------5------5---------------|
E|---------------3-3-3--3-3-3---------------|


 A5                             D5
Now we'll have to face another day
           C5   G5
You won't be  alone
A5                              F5
   This life is forcing us to stay
         D5  G5
For how lo______ng?
A5                                 D5
   Cold is the wind and thunder struck
       C5    G5
On a stormy night
A5                                 F5
   But can't you see, I'm by your side
        D5      G5
We are marching    on!


Quarta Estrofe:

                    P.M . .       . . . .

E|------------------------------------------|
B|------------------------------------------|
G|-7~--2------------------------------------|
D|-7~--2---5--5--3----------3--3----------3-|
A|-5~--0---5--5--3----------3--3----------3-|
E|---------3--3--1--1-1-1-1-1--1--1-1-1-1-1-|


             P.M    . .    . .    . .

E|------------------------------------------|
B|------------------------------------------|
G|-5~---------------------------------------|
D|-5~--5---------3------3------3------3-----|
A|-3~--5---------3------3------3------3-----|
E|-----3-----1-1-1--1-1-1--1-1-1--1-1-1-----|


                P.M . .       . . . .

E|------------------------------------------|
B|------------------------------------------|
G|-2~---------------------------------------|
D|-2~--5--5--3----------3--3----------3-----|
A|-0---5--5--3----------3--3----------3-----|
E|-----3--3--1--1-1-1-1-1--1--1-1-1-1-1-----|


   P.M.  .  .

E|------------------------------------------|
B|------------------------------------------|
G|------------------------------------------|
D|-------------5----------------------------|
A|-5--5--5--5--5----------------------------|
E|-3--3--3--3--3----------------------------|


D5               A5       G5       F5
   Follow your steps and you will find
             C5      G5       F5
The unknown ways are on your mind
             A5         G5         F5
Need nothing else than just your pride
         G5
To get there


Primeiro Refrão:

                   P.M. . . . .  .  . . . .

E|------------------------------------------|
B|-----0------------------------------------|
G|-5~--0---2~-------------------------------|
D|-5~--0---2~--2~---------------------------|
A|-3~---~--0---2~--3--3-3-3-3-3--3--3-3-3-3-|
E|-----3-------0---1--1-1-1-1-1--1--1-1-1-1-|


   P.M.  . . . . .  .  . . . . .

E|------------------------------------------|
B|------------------------------------------|
G|------------------------------------------|
D|----5--5-5-5-5-5--5--5-5-5-5-5------------|
A|-3--3--3-3-3-3-3--3--3-3-3-3-3------------|
E|-1----------------------------------------|


   P.M . . . . . . . . . . . . . .

E|------------------------------------------|
B|------------------------------------------|
G|------------------------------------------|
D|------------------------------------------|
A|-5-5-5-5-5-5-5-5-5-5-5-5-5-5-5-5----------|
E|-3-3-3-3-3-3-3-3-3-3-3-3-3-3-3-3----------|


   P.M . . . . . . . . . . . . . .

E|------------------------------------------|
B|------------------------------------------|
G|------------------------------------------|
D|------------------------------------------|
A|-5-5-5-5-5-5-5-5-5-5-5-5-5-5-5-5----------|
E|-3-3-3-3-3-3-3-3-3-3-3-3-3-3-3-3----------|


                          P.M. . . . .  .

E|------------------------------------------|
B|------------------------------------------|
G|-5~--------2~-4-5-------------------------|
D|-5~--------2~-----5~----------------------|
A|-3~--2~----0--2-3----2--3--3-3-3-3-3--3---|
E|--------3~--------3~-0--1--1-1-1-1-1--1---|


   P.M . . .

E|------------------------------------------|
B|------------------------------------------|
G|------------------------------------------|
D|------------5-----------------------------|
A|-3-3-3-3-3--5-----------------------------|
E|-1-1-1-1-1--3-----------------------------|


 C5      G/B
So carry on
           A5         E5   F5
There's a meaning to life
           C5         G5
Which someday we may find
C5       G/B       A5         G5
   Carry on, it's time to forget
       F5             G5
The remains from the past, to carry on

Pré-Ponte:

(Guitarra 1)

   P.M . .  . . . .  . . . .  . . . .

E|----------------------------------------------------|
B|----------------------------------------------------|
G|---5-4-5----5-4-5----5-4-5----5-4-5--/9-9~----------|
D|-7--------7--------7--------7-----------9~----------|
A|----------------------------------------------------|
E|----------------------------------------------------|


(Guitarra 2)

   P.M . .  . . . .  . . . .  . . . .

E|----------------------------------------------------|
B|----------------------------------------------------|
G|---9-7-9----9-7-9----9-7-9----9-7-9--14-14\---------|
D|-7--------7--------7--------7--------14-14\---------|
A|-------------------------------------12-12\---------|
E|----------------------------------------------------|


Ponte:

(Guitarra 1)


E|----------------------------------------------------|
B|----------------------------------------------------|
G|-/10~-12/14-12~----/10-10~--12/14-12~~--------------|
D|----------------------------------------------------|
A|----------------------------------------------------|
E|----------------------------------------------------|



E|----------------------------------------------------|
B|-/10-------11-------11h13---------------------------|
G|-----10-10----10-10-------12b14r12p10-12~-----------|
D|----------------------------------------------------|
A|----------------------------------------------------|
E|----------------------------------------------------|



E|----------------------------------------------------|
B|----------------------------------------------------|
G|-10-------12-------12h14----------------------------|
D|----12-12----12-12----------------------------------|
A|----------------------------------------------------|
E|----------------------------------------------------|



E|----------------------------------------------------|
B|-------------11-------11-13-11----------------------|
G|-14-10-12-14----12-14----------14-12-10-------------|
D|----------------------------------------14-12-11----|
A|----------------------------------------------------|
E|----------------------------------------------------|



E|----------------------------------------------------|
B|----------------------------------------------------|
G|-/10-10~--12/14-12~----/10-10~~--12/14-12~----------|
D|----------------------------------------------------|
A|----------------------------------------------------|
E|----------------------------------------------------|



E|----------------------------------------------------|
B|-/10-------11-------11h13---------------------------|
G|-----10-10----10-10-------12b14r12p10-12~-----------|
D|----------------------------------------------------|
A|----------------------------------------------------|
E|----------------------------------------------------|



E|----------------------------------------------------|
B|----------------------------------------------------|
G|-/10~--12---b14r12p10-13~-14-16~\-------------------|
D|----------------------------------------------------|
A|----------------------------------------------------|
E|----------------------------------------------------|


(Guitarra 2)

      P.M . .       . . . .

E|------------------------------------------|
B|------------------------------------------|
G|-7----------7--7----------7--6------------|
D|-7----------7--7----------7--7------------|
A|-5--5-5-5-5-5--5--5-5-5-5-5--4------------|
E|------------------------------------------|


      P.M . .       . . . .

E|------------------------------------------|
B|------------------------------------------|
G|-7----------7--7----------7--5------------|
D|-7----------7--7----------7--5------------|
A|-5--5-5-5-5-5--5--5-5-5-5-5--3------------|
E|------------------------------------------|


      P.M . .       . . . .

E|------------------------------------------|
B|------------------------------------------|
G|-10---------10-10---------10-5------------|
D|-10---------10-10---------10-5------------|
A|-8--8-8-8-8-8--8--8-8-8-8-8--3------------|
E|------------------------------------------|



      P.M . .       . . . .

E|------------------------------------------|
B|------------------------------------------|
G|-3----------3--3----------3---------------|
D|-3----------3--3----------3---------------|
A|-1--1-1-1-1-1--1--1-1-1-1-1---------------|
E|------------------------------------------|



E|-9-------9-10----9-10-12-10-9-----------------------|
B|---10-11------11--------------11-10-8---------------|
G|--------------------------------------10-9----------|
D|----------------------------------------------------|
A|----------------------------------------------------|
E|----------------------------------------------------|



E|----------------------------------------------------|
B|-----------------------/10--10~~-13-15-13~----------|
G|-/7---7~---9/10--9~---------------------------------|
D|----------------------------------------------------|
A|----------------------------------------------------|
E|----------------------------------------------------|



E|----------------------------------------------------|
B|-/13-------15-------17h18---------------------------|
G|-----14-14----14-14-------17b19r17p15-17~-----------|
D|----------------------------------------------------|
A|----------------------------------------------------|
E|----------------------------------------------------|



E|----------------------------------------------------|
B|----------------------------------------------------|
G|-/14~--16---b17r16p14-16~-17-19~\-------------------|
D|----------------------------------------------------|
A|----------------------------------------------------|
E|----------------------------------------------------|


Solo:

(Guitarra 1)

(Parte 1)


E|--------------------------------17h19h20------------|
B|-----------------------------17---------------------|
G|--------------------14h16h17------------------------|
D|-----------------14---------------------------------|
A|-/12~~--12h14h15------------------------------------|
E|----------------------------------------------------|



E|-19h20p19p17----17----------------------------------|
B|-------------20----20b22~~--------------------------|
G|----------------------------------------------------|
D|----------------------------------------------------|
A|----------------------------------------------------|
E|----------------------------------------------------|


(Parte 2)


E|-17-------20p17----17-------------------------------|
B|----20-17-------20----20p17----17----------------17-|
G|----------------------------20----20-19-17-19-20----|
D|----------------------------------------------------|
A|----------------------------------------------------|
E|----------------------------------------------------|



E|----------------------------------------------------|
B|----20p17-------17----------------------------------|
G|-20-------20-19----20p19p17-19~~--------------------|
D|----------------------------------------------------|
A|----------------------------------------------------|
E|----------------------------------------------------|


(Parte 3)


E|--------------------------------------15------------|
B|----------------------------------------------------|
G|-----------14----------------14-16-17----17-16-14-16|
D|-/14-15-17----17-15-14-15-17------------------------|
A|----------------------------------------------------|
E|----------------------------------------------------|



E|----17----------------15----------------------------|
B|----------------------------------------------------|
G|-17----17-16-14-16-17----17-16-14-16-17~------------|
D|----------------------------------------------------|
A|----------------------------------------------------|
E|----------------------------------------------------|


(Parte 4)


E|-----------------17-19-20-20b22~~r-b22~-------------|
B|---------17--20-------------------------------------|
G|-14--17---------------------------------------------|
D|----------------------------------------------------|
A|----------------------------------------------------|
E|----------------------------------------------------|


(Guitarra 2)


E|------------------------------------------|
B|------------------------------------------|
G|------------------------------------------|
D|------------------------------------------|
A|-3-3-3-3--3-3-3-3--3-3-3-3--3-3-3-3-------|
E|-1-1-1-1--1-1-1-1--1-1-1-1--1-1-1-1-------|



E|------------------------------------------|
B|------------------------------------------|
G|------------------------------------------|
D|------------------------------------------|
A|-3-3-3-3--3-3-3-3--3-3-3-3--3-3-3-3-------|
E|-1-1-1-1--1-1-1-1--1-1-1-1--1-1-1-1-------|



E|------------------------------------------|
B|------------------------------------------|
G|-5----4----5------------------------------|
D|-5----5----5----5-------------------------|
A|-3----2----3----5-------------------------|
E|----------------3-------------------------|



E|------------------------------------------|
B|------------------------------------------|
G|------------------------------------------|
D|------------------------------------------|
A|-3-3-3-3--3-3-3-3--3-3-3-3--3-3-3-3-------|
E|-1-1-1-1--1-1-1-1--1-1-1-1--1-1-1-1-------|



E|------------------------------------------|
B|------------------------------------------|
G|------------------------------------------|
D|-7-7-7-7--7-7-7-7--7-7-7-7--7-7-7-7-------|
A|-5-5-5-5--5-5-5-5--5-5-5-5--5-5-5-5-------|
E|------------------------------------------|



E|------------------------------------------|
B|------------------------------------------|
G|------------------------------------------|
D|------------------------------------------|
A|-5-5-5-5--5-5-5-5--5-5-5-5--5-5-5-5--7-5--|
E|-3-3-3-3--3-3-3-3--3-3-3-3--3-3-3-3--5-3--|


(Solo)

(Parte 1)


E|-17p13-------17p13-17p13--15p12-------15p12---------|
B|-------15-----------------------13----------13------|
G|----------14-----------------------12----------12---|
D|----------------------------------------------------|
A|----------------------------------------------------|
E|----------------------------------------------------|



E|-17p13-------17p13-17p13--15p12-------15p12---------|
B|-------15-----------------------13----------13------|
G|----------14-----------------------12----------12---|
D|----------------------------------------------------|
A|----------------------------------------------------|
E|----------------------------------------------------|


(Parte 2)


E|-----------15----------19h20-19h20p19p17-19-20-19---|
B|-15/17~-17----------------------------------------20|
G|--------------17b19r17------------------------------|
D|----------------------------------------------------|
A|----------------------------------------------------|
E|----------------------------------------------------|


(Parte 3)


E|-20p17-------20p17----------------------------17----|
B|-------18----------18----------------------18-------|
G|----------19----------19----------------19----------|
D|-------------------------19----------19-------------|
A|----------------------------20-17h20----------------|
E|----------------------------------------------------|


(Parte 4)


E|-17p13-15-17-13-------------------------------------|
B|----------------15----------------------------------|
G|-------------------14----------14-17-16~~-----------|
D|----------------------15----15----------------------|
A|-------------------------17-------------------------|
E|----------------------------------------------------|



(Parte 5)


E|-----------------16-17~\----------------------------|
B|-----------17-19------------------------------------|
G|----13-16-------------------------------------------|
D|-14-------------------------------------------------|
A|----------------------------------------------------|
E|----------------------------------------------------|


Interlúdio:

(Guitarra 1)

       P.M . .      . . . .     . .      . . . .

E|----------------------------------------------------|
B|----------------------------------------------------|
G|----------------------------------------------------|
D|----------------------------------------------------|
A|-------------5-3----------7h9-----9h10---------12p10|
E|-/x\-0-0-0-0------0-0-0-0-----0-0------0-0-0-0------|


   P.M . .

E|----------------------------------------------------|
B|----------------------------------------------------|
G|----------------------------------------------------|
D|----------------------------------------------------|
A|---------7p5----------------------------------------|
E|-0-0-0-0-----7-5------------------------------------|


   P.M . .      . . . .     . .      . .

E|----------------------------------------------------|
B|----------------------------------------------------|
G|----------------------------------------------------|
D|----------------------------------------------------|
A|---------5-3----------7h9-----9h10-----------0-2-0--|
E|-0-0-0-0------0-0-0-0-----0-0------0-0-3-0-3--------|



E|----------------------------------------------------|
B|----------------------------------------------------|
G|----------------------------------------------------|
D|------7--6~~----9\----------------------------------|
A|------5--4~~----7\----------------------------------|
E|-3-0------------------------------------------------|


   P.M      . . . .     . .      . . . .        . . .

E|----------------------------------------------------|
B|----------------------------------------------------|
G|----------------------------------------------------|
D|----------------------------------------------------|
A|-----5-3----------7h9-----9h10---------12p10--------|
E|-0-0------0-0-0-0-----0-0------0-0-0-0--------0-0-0-|


  P.M

E|----------------------------------------------------|
B|----------------------------------------------------|
G|----------------------------------------------------|
D|----------------------------------------------------|
A|---7p5----------------------------------------------|
E|-0-----7-5------------------------------------------|


   P.M . .      . . . .     . .      . .

E|----------------------------------------------------|
B|----------------------------------------------------|
G|----------------------------------------------------|
D|----------------------------------------------------|
A|---------5-3----------7h9-----9h10-------------2-0--|
E|-0-0-0-0------0-0-0-0-----0-0------0-0-3-0-3-0------|




E|----------------------------------------------------|
B|----------------------------------------------------|
G|----------------------------------------------------|
D|-----7--6~~--5~~--9~~-------------------------------|
A|-----5--4~~--7~~--7~~-------------------------------|
E|-3-0------------------------------------------------|


(Guitarra 2)

       P.M . .      . . . .     . .      . . . .

E|----------------------------------------------------|
B|----------------------------------------------------|
G|----------------------------------------------------|
D|----------------------------------------------------|
A|-------------5-3----------7h9-----9h10---------12p10|
E|-/x\-0-0-0-0------0-0-0-0-----0-0------0-0-0-0------|


   P.M . .

E|----------------------------------------------------|
B|----------------------------------------------------|
G|----------------------------------------------------|
D|----------------------------------------------------|
A|---------7p5----------------------------------------|
E|-0-0-0-0-----7-5------------------------------------|


   P.M . .      . . . .     . .      . .

E|----------------------------------------------------|
B|----------------------------------------------------|
G|----------------------------------------------------|
D|----------------------------------------------------|
A|---------5-3----------7h9-----9h10-----------0-2-0--|
E|-0-0-0-0------0-0-0-0-----0-0------0-0-3-0-3--------|



E|----------------------------------------------------|
B|----------------------------------------------------|
G|--------------8--9-11--11/13\11--9-8--x-------------|
D|------7--6~~--9--9-11--11/13\11--9-9--x--9\---------|
A|------5--4~~-----------------------------7\---------|
E|-3-0------------------------------------------------|


   P.M      . . . .     . .      . . . .        . . .

E|----------------------------------------------------|
B|----------------------------------------------------|
G|----------------------------------------------------|
D|----------------------------------------------------|
A|-----5-3----------7h9-----9h10---------12p10--------|
E|-0-0------0-0-0-0-----0-0------0-0-0-0--------0-0-0-|


  P.M

E|----------------------------------------------------|
B|----------------------------------------------------|
G|----------------------------------------------------|
D|----------------------------------------------------|
A|---7p5----------------------------------------------|
E|-0-----7-5------------------------------------------|


   P.M . .      . . . .     . .      . .

E|----------------------------------------------------|
B|----------------------------------------------------|
G|----------------------------------------------------|
D|----------------------------------------------------|
A|---------5-3----------7h9-----9h10-------------2-0--|
E|-0-0-0-0------0-0-0-0-----0-0------0-0-3-0-3-0------|



E|----------------------------------------------------|
B|----------------------------------------------------|
G|--------------8--9-11--11/13\11--9-8--x-------------|
D|------7--6~~--9--9-11--11/13\11--9-9--x--9\---------|
A|------5--4~~-----------------------------7\---------|
E|-3-0------------------------------------------------|



E|----------------------------------------------------|
B|--7~--7--9--10-10--9--7--9-10-10--------------------|
G|--7~--7--9--9---9--9--7--9--9--9--------------------|
D|----------------------------------------------------|
A|----------------------------------------------------|
E|----------------------------------------------------|


Quinta Estrofe:

                    P.M . .       . . . .

E|------------------------------------------|
B|------------------------------------------|
G|-7~--2------------------------------------|
D|-7~--2---5-----3----------3--3----------3-|
A|-5~--0---5-----3----------3--3----------3-|
E|---------3-----1--1-1-1-1-1--1--1-1-1-1-1-|


             P.M    . .    . .    . .

E|------------------------------------------|
B|------------------------------------------|
G|-5~---------------------------------------|
D|-5~--5---------3------3------3------3-----|
A|-3~--5---------3------3------3------3-----|
E|-----3-----1-1-1--1-1-1--1-1-1--1-1-1-----|


                P.M . .       . . . .

E|------------------------------------------|
B|------------------------------------------|
G|-2~---------------------------------------|
D|-2~--5-----3----------3--3----------3-----|
A|-0---5-----3----------3--3----------3-----|
E|-----3-----1--1-1-1-1-1--1--1-1-1-1-1-----|


   P.M . . . . . . . . . . . . . .

E|------------------------------------------|
B|------------------------------------------|
G|------------------------------------------|
D|------------------------------------------|
A|-5-5-5-5-5-5-5-5-5-5-5-5-5-5-5-5----------|
E|-3-3-3-3-3-3-3-3-3-3-3-3-3-3-3-3----------|


D5               A5       G5       F5
   Follow your steps and you will find
             C5      G5       F5
The unknown ways are on your mind
             A5         G5         F5
Need nothing else than just your pride
         G5
To get there


Segundo Refrão:

                   P.M . . . . . . . . . . .

E|------------------------------------------|
B|-----0------------------------------------|
G|-5~--0---2~-------------------------------|
D|-5~--0---2~--2~---------------------------|
A|-3~---~--0---2~--3-3-3-3-3-3-3-3-3-3-3-3-3|
E|-----3-------0---1-1-1-1-1-1-1-1-1-1-1-1-1|


   P.M . . . . . . . . . . . . . . . . .

E|------------------------------------------|
B|------------------------------------------|
G|------------------------------------------|
D|-------5-5-5-5-5-5-5-5-5-5-5-5-5-5-5-5----|
A|-3-3-3-3-3-3-3-3-3-3-3-3-3-3-3-3-3-3-3----|
E|-1-1-1------------------------------------|


   P.M . . . . . . . . . . . . . .

E|------------------------------------------|
B|------------------------------------------|
G|------------------------------------------|
D|------------------------------------------|
A|-5-5-5-5-5-5-5-5-5-5-5-5-5-5-5-5----------|
E|-3-3-3-3-3-3-3-3-3-3-3-3-3-3-3-3----------|


   P.M . . . . . . . . . . . . . .

E|------------------------------------------|
B|------------------------------------------|
G|------------------------------------------|
D|------------------------------------------|
A|-5-5-5-5-5-5-5-5-5-5-5-5-5-5-5-5----------|
E|-3-3-3-3-3-3-3-3-3-3-3-3-3-3-3-3----------|


                          P.M . . . . . . .

E|------------------------------------------|
B|------------------------------------------|
G|-5~--------2~-4-5-------------------------|
D|-5~--------2~-----5~----------------------|
A|-3~--2~----0--2-3----2--3-3-3-3-3-3-3-3-3-|
E|--------3~--------3~-0--1-1-1-1-1-1-1-1-1-|


   P.M . . . . .

E|------------------------------------------|
B|------------------------------------------|
G|------------------------------------------|
D|---------------5--------------------------|
A|-3-3-3-3-3-3-3-5--------------------------|
E|-1-1-1-1-1-1-1-3--------------------------|


 C5      G/B
So carry on
           A5         E5   F5
There's a meaning to life
           C5         G5
Which someday we may find
C5       G/B       A5         G5
   Carry on, it's time to forget
       F5             G5
The remains from the past


Terceiro Refrão:

                   P.M . . . . . . . . . . .

E|------------------------------------------|
B|------------------------------------------|
G|-7~--2~--4~-------------------------------|
D|-7~--2~--4~--4~---------------------------|
A|-5~--0---2---4~--5-5-5-5-5-5-5-5-5-5-5-5-5|
E|-------------2---3-3-3-3-3-3-3-3-3-3-3-3-3|


   P.M . . . . . . . . . . . . . . . . .

E|------------------------------------------|
B|------------------------------------------|
G|------------------------------------------|
D|-------7-7-7-7-7-7-7-7-7-7-7-7-7-7-7-7----|
A|-5-5-5-5-5-5-5-5-5-5-5-5-5-5-5-5-5-5-5----|
E|-3-3-5------------------------------------|



E|------------------------------------------|
B|------------------------------------------|
G|-2----------------------------------------|
D|-2----------------------------------x\----|
A|-0----------------------------------x\----|
E|------------------------------------x\----|


                          P.M . . . . . . .

E|------------------------------------------|
B|------------------------------------------|
G|-7~--------4~-6-7-------------------------|
D|-7~--------4~-----7~----------------------|
A|-5~--4~----2--4-5----4--5-5-5-5-5-5-5-5-5-|
E|--------5~--------5~-2--3-3-3-3-3-3-3-3-3-|


   P.M . . . . . .

E|------------------------------------------|
B|------------------------------------------|
G|---------------2--------------------------|
D|---------------2--------------------------|
A|-5-5-5-5-5-5-5-0--------------------------|
E|-3-3-3-3-3-3-3----------------------------|



 D5      A/C#
So carry on
           B5         F#5  G5
There's a meaning to life
           D5         A5
Which someday we may find
D5       A/C#      B5         A5
   Carry on, it's time to forget
   G5             A5
Remains from the past


Final:

(Guitarra 1)

                          P.M. . . . .  .

E|------------------------------------------|
B|------------------------------------------|
G|-7~---~----4~-6-7-------------------------|
D|-7~---~----4~-----7~----------------------|
A|-5~--4~----2--4-5----4--5----------5--5---|
E|--------5~--------5~-2--3--3-3-3-3-3--3---|


   P.M . . . . . . . . . . . . . . . . . . .

E|------------------------------------------|
B|------------------------------------------|
G|------------------------------------------|
D|------------------------------------------|
A|---------5--7----------7--7----------7----|
E|-3-3-3-3-3--5--5-5-5-5-5--5--5-5-5-5-5----|


(riff 1)

   P.M . .  . . . .  . . . .  . . . .

E|------------------------------------------|
B|------------------------------------------|
G|---7-6-7----7-6-7----7-6-7----7-6-7--/7-6~|
D|-9--------9--------9--------9-------------|
A|------------------------------------------|
E|------------------------------------------|


   P.M

E|------------------------------------------|
B|------------------------------------------|
G|------------------------------------------|
D|------------------------------------------|
A|-5----------5--5----------5--7----------7-|
E|-3--3-3-3-3-3--3--3-3-3-3-3--5--5-5-5-5-5-|



E|------------------------------------------|
B|------------------------------------------|
G|------------------------------------------|
D|------------------------------------------|
A|-7----------7-----------------------------|
E|-5--5-5-5-5-5-----------------------------|


(riff 1)

   P.M . .  . . . .  . . . .  . . . .

E|------------------------------------------|
B|------------------------------------------|
G|---7-6-7----7-6-7----7-6-7----7-6-7--/7-6~|
D|-9--------9--------9--------9-------------|
A|------------------------------------------|
E|------------------------------------------|


   P.M

E|------------------------------------------|
B|------------------------------------------|
G|------------------------------------------|
D|---------------------------------7--------|
A|-5-5-5-5-5-5-5-5-5-5-5-5-5-5-5-5-7--------|
E|-3-3-3-3-3-3-3-3-3-3-3-3-3-3-3-3-5--------|


(Guitarra 2)

                          P.M. . . . .  .

E|------------------------------------------|
B|------------------------------------------|
G|-7~--------4~-6-7-------------------------|
D|-7~--------4~-----7~----------------------|
A|-5~--4~----2--4-5----4--5----------5--5---|
E|--------5~--------5~-2--3--3-3-3-3-3--3---|


   P.M . . . . . . . . . . . . . . . . . . .

E|------------------------------------------|
B|------------------------------------------|
G|------------------------------------------|
D|------------------------------------------|
A|---------5--7----------7--7----------7----|
E|-3-3-3-3-3--5--5-5-5-5-5--5--5-5-5-5-5----|


(riff 1)

   P.M  . .  . .  . .  . .  . .  . .  . .

E|----------------------------------------------------|
B|----------------------------------------------------|
G|---11-9-11---11-9-11---11-9-11---11-9-11------------|
D|-9---------9---------9---------9----------7-6-------|
A|----------------------------------------------------|
E|------------------------------------------7-5-------|


   P.M

E|------------------------------------------|
B|------------------------------------------|
G|------------------------------------------|
D|------------------------------------------|
A|-5----------5--5----------5--7----------7-|
E|-3--3-3-3-3-3--3--3-3-3-3-3--5--5-5-5-5-5-|




E|------------------------------------------|
B|------------------------------------------|
G|------------------------------------------|
D|------------------------------------------|
A|-7----------7-----------------------------|
E|-5--5-5-5-5-5-----------------------------|


(riff 1)

   P.M  . .  . .  . .  . .  . .  . .  . .

E|----------------------------------------------------|
B|----------------------------------------------------|
G|---11-9-11---11-9-11---11-9-11---11-9-11------------|
D|-9---------9---------9---------9----------7-6-------|
A|----------------------------------------------------|
E|------------------------------------------7-5-------|


   P.M

E|------------------------------------------|
B|------------------------------------------|
G|------------------------------------------|
D|---------------------------------7--------|
A|-5-5-5-5-5-5-5-5-5-5-5-5-5-5-5-5-7--------|
E|-3-3-3-3-3-3-3-3-3-3-3-3-3-3-3-3-5--------|



D5       A/C#      B5         A5
   Carry on, it's time to forget
       G5             A5          (riff 1)
The remains from the past to carry on
 G5               A5           (riff 1)
Remains from the past, to carry on
 G5               A5
Remains from the past
Texto Colunas
Alterar tom ½ tom ½ tom
afinação acordes na letra esconder tabs mais »

Comentários 22

  • christian christian: Postado em 20/04/2014 16:50

    esses apejos com tapping sao super dificeis

  • vodeangra vodeangra: Postado em 02/04/2014 10:25

    nossa até que enfim uma video aula do angra de parabéns cifra club....

  • pedro.antonio.33671748 pedro.antonio.33671748: Postado em 21/03/2014 10:58

    alguém sabe o nome da guitarra q o fofão esta usando??

  • rolister rolister: Postado em 07/02/2014 21:37

    ai vcs do cifra club estão de parabéns mais falto um minimo detalhe quais os efeitos das duas guitarras se alguém poder ajudar fico grato

  • Enndrews Enndrews: Postado em 16/01/2014 13:20

    Gostei da música, o bom é que é bem fácil de decorar =/

  • juan.andrew.906 juan.andrew.906: Postado em 22/12/2013 23:23

    MUITO FODAAAAAAAAAAAAAAAAAAAAAAAAAAAAAAAAAAAAAAAAAAAAA!!!!!!!!

  • Ti@goGK Ti@goGK: Postado em 06/12/2013 11:57

    rsrsrsrsrsrs.....

  • l_e_o_n_a_r_d_o l_e_o_n_a_r_d_o: Postado em 03/12/2013 12:03

    nada que 12 hrs de cifraclub por dia não resolva ^^

  • edubuglioli edubuglioli: Postado em 01/12/2013 16:20

    Parabéns Gustavo e Vinicius, ficou show.

  • maamendez maamendez: Postado em 30/11/2013 18:31

    É o fofão Oo????

Exibindo 10 de 22 comentários Mostrar mais ver todos »
Composição: Andre Matos
Esse não é o compositor? Avise-nos.
Contribuição: Thaigo Correções: The_guitas »
  1. Até Você Voltar - Henrique e Juliano Manteve-se 88.313 exibições
  2. Domingo de Manhã - Marcos e Belutti Manteve-se 75.830 exibições
  3. Cuida Bem Dela - Henrique e Juliano Manteve-se 51.562 exibições
  4. Diz Pra Mim - Banda Malta Manteve-se 43.920 exibições
  5. Raridade - Anderson Freire Manteve-se 42.362 exibições
  6. Recaídas - Henrique e Juliano Manteve-se 40.795 exibições
  7. Só Os Loucos Sabem - Charlie Brown Jr. Manteve-se 30.249 exibições
  8. Pra Você - Onze:20 Manteve-se 29.620 exibições
  9. Tudo Que Você Quiser - Luan Santana Manteve-se 27.139 exibições
  10. Logo Eu - Jorge e Mateus Manteve-se 26.801 exibições
  1. Henrique e Juliano- Manteve-se 272.036 exibições
  2. Jorge e Mateus- Manteve-se 216.930 exibições
  3. Legião Urbana- Manteve-se 197.496 exibições
  4. Charlie Brown Jr.- Manteve-se 145.021 exibições
  5. Fernandinho- Manteve-se 116.835 exibições
  6. Bruno e Marrone- Manteve-se 114.776 exibições
  7. Luan Santana- Manteve-se 113.632 exibições
  8. Marcos e Belutti- Manteve-se 93.473 exibições
  9. Thalles Roberto- Manteve-se 91.835 exibições
  10. Victor e Leo- Manteve-se 90.054 exibições
Exibir acordes »

Cifras e tabs

Fórum Cifra Club

Aprenda

Cifra Club News

Mais Serviços Cifra Club ID

Studio Sol

©1996 - 2014 Cifra Club · o primeiro, maior e mais acessado do Brasil · 341 mil músicas · 6.3 milhões pessoas cadastradas

publicidade
fechar