Nova Era

Angra

 Angra
Tom: C
		
Versão 1
-======-
Nova Era


E|---------------------|-----------------|----------------|-----------------
B|---3-----------------|-----------------|--3-------------|-----------------
G|---2-----------------|-----------------|--2-------------|-----------------
D|---0-----mute......--|---3------2------|--0-------------|-----------------
A|---------8--7--5--3--|---1------0------|----------5--7--|--8-------10-----
E|---------6--5--3--1--|-----------------|----------3--5--|--6--------9-----



E|---------------------|-----------------|---------------------|-----------|--------
B|---3-----------------|-----------------|--3------------------|-----------|--------
G|---2-----------------|-----------------|--2------------------|-----------|--------
D|---0-----mute......--|---3------2------|--0------------mute--|-----------|--------
A|---------8--7--5--3--|---1------0------|------2--3--7--5--7--|--8-----7--|--4---7-
E|---------6--5--3--1--|-----------------|------0--1--5--3--5--|--6-----5--|--------


00:19
KIKO:

E|-------------|----------|------------|--------8|------------|---------------8-----8--
B|--10------10-|-8-10-11-8|-10------10-|8-10-11--|-10------10-|8-10-11-8-10-11-10-11---
G|-----7-10----|----------|----7-10----|---------|----7-10----|------------------------
D|-------------|----------|------------|---------|------------|------------------------
A|-------------|----------|------------|---------|------------|------------------------
E|-------------|----------|------------|---------|------------|------------------------

RAFAEL:

E|-------------|----------|------------|---------|------------|------------------------
B|-------------|-----8----|------------|----8-10-|------------|-----8------8-10---8-10-
G|--10---7-10--|9-10---9--|10---7-10---|9-10-----|-10---7-10--|9-10---9-10------10-----
D|-----7-------|----------|---7--------|---------|----7-------|------------------------
A|-------------|----------|------------|---------|------------|------------------------
E|-------------|----------|------------|---------|------------|------------------------


00:27
KIKO:

E|--10--10-8---10--|10-------------------|10---10-8--10--|10---------------------------
B|----------11-----|-----------10-11-13--|---------11----|----------------------11-13--
G|-----------------|----9-10-12----------|---------------|-------------10-12-14--------
D|-----------------|---------------------|---------------|-----10-12-14----------------
A|-----------------|---------------------|---------------|-----------------------------
E|-----------------|---------------------|---------------|-----------------------------

RAFAEL:

E|-----------------|---------------------|---------------|-----------------------------
B|-11--11-10----11-|10-------------------|11--11-10-8-11-|-10-------------------8-10---
G|-----------12----|-----------10-12-14--|---------------|--------------7-9-10---------
D|-----------------|--10-12-14-----------|---------------|-------7-8-10----------------
A|-----------------|---------------------|---------------|-----------------------------
E|-----------------|---------------------|---------------|-----------------------------


00:33
KIKO:

E|--10---10--8-----10--|-10------------|-------------------|-15---15-13-15----
B|-------------11------|------------8--|-10--11--8--10-----|-15---15----14----
G|---------------------|-----7--10-----|-------------------|------------------
D|---------------------|---------------|-------------------|------------------
A|---------------------|---------------|-------------------|------------------
E|---------------------|---------------|-------------------|------------------

RAFAEL:

E|---------------------|---------------|-------------------|------------------
B|--11---11--10----11--|-10------------|-------------------|------------------
G|--------------12-----|-------------9-|-10--10--10-9-10---|-12---12--10--9---
D|---------------------|---------12----|-------------------|------------------
A|---------------------|-----12--------|-------------------|------------------
E|---------------------|---------------|-------------------|------------------


1)00:39 1. Somehow		I Know
2)01:32 2. Fresh		Winds of

E|---------------------------|--------------------|-
B|---------------------------|--------------------|-

G*----mute...-----mute...---|----mute...---mut.--|-

D*-7----------7-7---------7-|-7----------7-----7-|-
A|--5--5-5-5-5-5-5-5-5-5-5-5-|-4--4-4-4-4-4-4-4-4-|-
E|---------------------------|--------------------|-


            That		  things are gona
            Hope has              taken us ahead

E|--------------------------|----------------------
B|--------------------------|----------------------
G|--------------------------|--------------mute..--
D|-7--mute...-7-7-mute...-7-|-5--mute...-5-5-5-5-5-
A|-5--5-5-5-5-5-5-5-5-5-5-5-|-3--3-3-3-3-3-3-3-3-3-
E|--------------------------|----------------------


00:44  change      New        bondaries on the way
01:38           Forever          is      a
KIKO:

E|--------------------------|--------------------------|-
B|--------------------------|--------------------------|-
G|--------------------------|--------------------------|-
D|-7--mute...-7-7-mute...-7-|-5--mute...-5-m..-5-m..-5-|-
A|-5--5-5-5-5-5-5-5-5-5-5-5-|-3--3-3-3-3-3-3-3-3-3-3-3-|-
E|--------------------------|--------------------------|-

RAFAEL:

E|--------------------------|--------------------------|-
B|--------------------------|--------------------------|-
G|--------------------------|--------------------------|-
D|--------------------------|--------------------------|-
A|--------------------------|--------------------------|-
E|--------------------------|--------------------------|-


      like never were before
      place you have to keep in   mind
KIKO:

E|-------------------------------|---------------------------------
B|-mute..........................|mute.............................
G|-----7-7-5-5-7-7-----7-7-5-5-7-|-----7-7-5-5-7-7-----7-7-5-5-7-7-
D|-5-5-------------5-5-----------|-3-3-------------3-3-------------
A|-------------------------------|---------------------------------
E|-------------------------------|---------------------------------

RAFAEL:

E|--------------------------------|--------------------------------
B|--------------------------------|--------------------------------
G|-mute...........................|mute............................
D|-5-5-8-8-7-7-8-8-5-5-8-8-7-7-8-8|----7-7-5-5-7-7-----7-7-5-5-7-7-
A|--------------------------------|5-5-------------5-5-------------
E|--------------------------------|--------------------------------


00:50 Find a a meaning to your life
01:43 No way to limit our goals
KIKO:

E|---------------------------------|---------------------------------|-
B|-mute............................|-mute............................|-
G|-----7-7-5-5-7-7-----7-7-5-5-7-7-|-----7-7-5-5-7-7-----7-7-5-5-7-7-|-
D|-5-5-------------5-5-------------|---------------------------------|-
A|---------------------------------|-8-8-------------8-8-------------|-
E|---------------------------------|---------------------------------|-

RAFAEL:

E|---------------------------------|---------------------------------|-
B|---------------------------------|---------------------------------|-
G|-mute............................|-mute............................|-
D|-5-5-8-8-7-7-8-8-5-5-8-8-7-7-8-8-|-----7-7-5-5-7-7-----7-7-5-5-7-7-|-
A|---------------------------------|-5-5-------------5-5-------------|-
E|---------------------------------|---------------------------------|-


      Healing whispers of the           angels Bring the
      We'll find a reason to            believe facing
KIKO:

E|---------------------------------|---------------------------------|
B|-mute............................|-mute............................|
G|-----7-7-5-5-7-7-----7-7-5-5-7-7-|-----7-7-5-5-7-7-----7-7-5-5-7-7-|
D|-5-5-------------5-5-------------|-3-3-------------3-3-------------|
A|---------------------------------|---------------------------------|
E|---------------------------------|---------------------------------|

RAFAEL:

E|---------------------------------|---------------------------------|
B|---------------------------------|---------------------------------|
G|-mute............................|-mute............................|
D|-5-5-8-8-7-7-8-8-5-5-8-8-7-7-8-8-|-----7-7-5-5-7-7-----7-7-5-5-7-7-|
A|---------------------------------|-5-5-------------5-5-------------|
E|---------------------------------|---------------------------------|


00:55  Sunrise again
01:49  Nova Era          1. 2.New day shines, fallen angels will arise

E|---------|-------------|------------|--------------|-----------------|------
B|---------|-------------|------------|--------------|-----------------|------
G|---------|--7-----9----|------------|--------------|-----------------|------
D|-3-------|--7-----7----|--10--------|--10----------|--3-----------5--|---7--
A|-1-------|-------------|---8--------|---7----------|--1-----------3--|---5--
E|---------|-------------|------------|--------------|-----------------|------


01:04
01:58 Nova Era brings the ashes back to life

E|------------------------|------------------|-------|---------------------------------
B|------------------------|------------------|-------|---------------------------------
G|------------------------|------------------|-------|-mute............................
D|-3--------5-------------|------------------|-5-----|-5-5-5-5-------------------------
A|-1--------3-------------|--3---------------|-3-----|---------8-8-8-8-7-7-7-7-5-5-5-5-
E|------------------------|--1---------------|-------|---------------------------------


01:10
02:03 All over   now sores in  pain an awful lies

E|--------------|-------------|--------------------|--------
B|--------------|-------------|--------------------|--------
G|--------------|-------------|--------------------|--------
D|----10--------|--10---------|---3-------------5--|----7---
A|-----8--------|---7---------|---1-------------3--|----5---
E|--------------|-------------|--------------------|--------


01:15
02:09 Angels      will arise                       Back to life

E|--------------|-------------|--------------------|--------
B|--------------|-------------|--------------------|--------
G|--------------|-------------|--------------------|--------
D|----3------5--|-------------|---8-------8--------|----8---
A|----1------3--|--3----------|---6-------6--------|----6---
E|--------------|--1----------|--------------------|--------


01:21
KIKO:

E|---------------|---------------|---------------|-------------------8-------8--
B|-10---------10-|-8--10--11-----|-10---------10-|-8--10--11-8-10-11---10-11----
G|-----7--10-----|------------12-|-----7--10-----|------------------------------
D|---------------|---------------|---------------|------------------------------
A|---------------|---------------|---------------|------------------------------
E|---------------|---------------|---------------|------------------------------

RAFAEL:

E|---------------|---------------|---------------|------------------------------
B|---------------|---------8-----|---------------|-5---6---8------8-10----8-10--
G|-10------7--10-|-9--10-------9-|-10------7--10-|-----------9-10------10-------
D|-----7---------|---------------|-----7---------|------------------------------
A|---------------|---------------|---------------|------------------------------
E|---------------|---------------|---------------|------------------------------


01:26
KIKO:

E|-10--10----------10-|-10--------------------|-10----|-------------------------
B|---------13--11-----|--------------10-11-13-|-------|-17--17--15--20----------
G|--------------------|------9-10-12----------|-------|-------------------------
D|--------------------|-----------------------|-------|-------------------------
A|--------------------|-----------------------|-------|-------------------------
E|--------------------|-----------------------|-------|-------------------------

RAFAEL:

E|--------------------|-----------------------|-------|-------------------------
B|-11--11--10--8---11-|-10--------------------|-11----|-------------------------
G|--------------------|--------------10-12-14-|-------|-13--13--10--17----------
D|--------------------|-----10-12-14----------|-------|-------------------------
A|--------------------|-----------------------|-------|-------------------------
E|--------------------|-----------------------|-------|-------------------------


02:12                              Back to life

E|----------------------------|---------------------------|---
B|----------------------------|---------------------------|---
G|----------------------------|---------------------------|---
D|--8-mute...-8-mute...-8-m..-|-8-mute...-8-mute...-8-m..-|---
A|--6-6-6-6-6-6-6-6-6-6-6-6-6-|-6-6-6-6-6-6-6-6-6-6-6-6-6-|---
E|----------------------------|---------------------------|---




E|--T-------T-------T-------T----------T------|--T------T------T------T--------T-----
B|--------------------------------------------|--------------------------------------
G|--------------------------------------------|--------------------------------------
D|-12-0-10-12-10-0-12-0-10-12-10-0-10-12-10-0-|-12-0-8-12-8-0-12-0-8-12-8-0-8-12-8-0-
A|--------------------------------------------|--------------------------------------
E|--------------------------------------------|--------------------------------------


02:17


E|--T------T------T------T--------T-----|--T------T------T------T--------T-------
B|--------------------------------------|----------------------------------------
G|--------------------------------------|----------------------------------------
D|-12-0-7-12-7-0-12-0-7-12-7-0-7-12-7-0-|-12-0-4-12-4-0-12-0-4-12-4-0-4-12-4-0---
A|--------------------------------------|----------------------------------------
E|--------------------------------------|----------------------------------------


                                             02:21

E|--T-------T-------T-------T----------T------|--T------T------T------T--------T-----
B|--------------------------------------------|--------------------------------------
G|--------------------------------------------|--------------------------------------
D|-12-0-10-12-10-0-12-0-10-12-10-0-10-12-10-0-|-12-0-8-12-8-0-12-0-8-12-8-0-8-12-8-0-
A|--------------------------------------------|--------------------------------------
E|--------------------------------------------|--------------------------------------



E|--T------T------T------T--------T-----|--T------T------T------T--------T-------
B|--------------------------------------|----------------------------------------
G|--------------------------------------|----------------------------------------
D|-12-0-7-12-7-0-12-0-7-12-7-0-7-12-7-0-|-12-0-4-12-4-0-12-0-4-12-4-0-4-12-4-0---
A|--------------------------------------|----------------------------------------
E|--------------------------------------|----------------------------------------


02:26

E|-T-----T-----T-----T-------T-----|-T-----T-----T-----T-------T-------
B|---------------------------------|-----------------------------------
G|---------------------------------|-----------------------------------
D|-8-0-5-8-5-0-8-0-5-8-5-0-5-8-5-0-|-7-0-4-7-4-0-7-0-4-7-4-0-4-7-4-0---
A|---------------------------------|-----------------------------------
E|---------------------------------|-----------------------------------



                                          02:30
E|--T------T------T------T--------T-----|-T-----T-----T-----T-------T------------
B|--------------------------------------|----------------------------------------
G|--------------------------------------|----------------------------------------
D|-10-0-7-10-7-0-10-0-7-10-7-0-7-10-7-0-|-8-0-5-8-5-0-8-0-5-8-5-0-5-8-5-0--------
A|--------------------------------------|----------------------------------------
E|--------------------------------------|----------------------------------------



E|--T------T------T------T--------T-----|--T------T------T------T--------T-------
B|--------------------------------------|----------------------------------------
G|--------------------------------------|----------------------------------------
D|-11-0-8-11-8-0-11-0-8-11-8-0-8-11-8-0-|-12-0-7-12-7-0-12-0-7-12-7-0-7-12-7-0---
A|--------------------------------------|----------------------------------------
E|--------------------------------------|----------------------------------------


02:34

E|--T-------T-------T------------T-----T-------T---|--T-------T-------T-------T------
B|-------------------------------------------------|---------------------------------
G|-------------------------------------------------|---------------------------------
D|-13-0-10-13-10-0-13-10-0-16-0-13-16-13-0-16-13-0-|-19-0-16-19-16-0-19-16-0-22-0-19-
A|-------------------------------------------------|---------------------------------
E|-------------------------------------------------|---------------------------------



                    02:37
E|--T-------T------|-15-------|---15--17----|----------17-18--|-----------15----
B|-----------------|-18--18---|---18--20----|-20--------------|-20-----15----15-
G|-----------------|----------|-------------|-----------------|-----------------
D|-22-19-0-22-19-0-|----------|-------------|-----------------|-----------------
A|-----------------|----------|-------------|-----------------|-----------------
E|-----------------|----------|-------------|-----------------|-----------------


02:43

E|------18--------|--18---------|-17--17---------------|--------------------------
B|----------------|-------------|--------18------------|--------------------------
G|----------------|-------------|-----------17-15-14---|--14----------------------
D|----------------|-------------|----------------------|-----15-------------------
A|----------------|-------------|----------------------|--------17-15-13-12-13-15-
E|----------------|-------------|----------------------|--------------------------


02:48

E|------------------------|-18-17-15-----------------------------------|-----------
B|-15------15-------------|---------18-17-15-----15--------------------|-----------
G|-15------15----17-17-15-|-----------------18-17--18-17-15-17-15------|-17--10-12-
D|----17-17---17----------|--------------------------------------17-15-|-----------
A|------------------------|--------------------------------------------|-----------
E|------------------------|--------------------------------------------|-----------



                                               02:54
E|--------------------------------------------|-------------------------------------
B|-10-11-10--------11-14-11--------14-13-11---|-------------------------------------
G|---------12-10-12--------12-10-12--------12-|-------------------------------------
D|--------------------------------------------|-------------------------------------
A|--------------------------------------------|-10-10-10-10-12-12-12-12-13-13-13-13-
E|--------------------------------------------|-------------------------------------



E|------------|-------------------------------------------------|--
B|------------|-------------------------------------13-13-13-13-|--
G|------------|-12-12-12-12-14-14-14-14-15-15-15-15-------------|--
D|12-12-12-12-|-------------------------------------------------|--
A|------------|-------------------------------------------------|--
E|------------|-------------------------------------------------|--



E|--------------------------------------|----------------------------------------
B|--------------------------------------|-12-10-9------13-12-10-------15-12------
G|-10-9-7------13-10-9-------14-13------|--------10-9-7--------13-10-9-----13-10-
D|-------10-9-7-------12-10-9-----15-14-|----------------------------------------
A|--------------------------------------|----------------------------------------
E|--------------------------------------|----------------------------------------


03:00
c/ wah wah

E|----------------|-----------------|--------------|-12-13----12--------------
B|----13-------13-|-12--12-------12-|-13--13-12-13-|-------15----13-15-12-13--
G|-14-------14----|-----------13----|--------------|--------------------------
D|-------14-------|--------14-------|--------------|--------------------------
A|----------------|-----------------|--------------|--------------------------
E|----------------|-----------------|--------------|--------------------------


03:05

E|-----------------|-----------------|--------------|---------------------------------
B|--------------13-|-12-----------12-|-13--13-12-13-|-18-17-----17--------------------
G|-14--------14----|-----------13----|--------------|------20-19--20-19-17-19-17------
D|--------14-------|--------14-------|--------------|---------------------------19-17-
A|-----15----------|-----14----------|--------------|---------------------------------
E|-----------------|-----------------|--------------|---------------------------------



             03:11
E|-----------|----------|18-17-18-15-18-17-15-13-17-15-13-12-15-13-12-|-10-13-12-10-
B|-----------|----14-15-|---------------------------------------------|-------------
G|-19-17-----|19--------|---------------------------------------------|-------------
D|------19-17|----------|---------------------------------------------|-------------
A|-----------|----------|---------------------------------------------|-------------
E|-----------|----------|---------------------------------------------|-------------



E|-9-12-10-9--10-9-----8-----|------------------------------------
B|----------11----11-10-11-10|-8-11-10-8--10-8----8---------------
G|---------------------------|----------10----10-9-10-9-7-10-9-7--
D|---------------------------|------------------------------------
A|---------------------------|------------------------------------
E|---------------------------|------------------------------------


03:17

E|-----------|---------------|-------------|-19-14--19-14--19-14-17-14--17-14--17-14-
B|-8--8-6-6--|-13--13-10-15--|-17-17-15-18-|------16-----16-----------16-----16------
G|-----------|---------------|-------------|-----------------------------------------
D|-----------|---------------|-------------|-----------------------------------------
A|-----------|---------------|-------------|-----------------------------------------
E|-----------|---------------|-------------|-----------------------------------------


03:22
   Oh!                                                         Come on, Arise!

E|------------------|-----------------------|-----------------|----------------
B|------------------|-----------------------|-----------------|----------------
G|------------------|-----------------------|-----------------|-9-7---5-7--9---
D|------------------|-------------------4-5-|-----------------|-9-7---5-7--9---
A|-m-m-10-m-7-m-9-m-|-5-m-7-m------3-5-7----|m-m-10-m-7-m-9-m-|----------------
E|-0-0----0---0---0-|---0---0-3-5-7---------|0-0----0---0---0-|----------------


03:28

E|------------------|------------------------|------------------|--------------
B|------------------|----------8-7-5---------|------------------|--------------
G|------------------|---------------7-5-4----|------------------|-9-7--5-7--9--
D|------------------|--------------------7-5-|------------------|-9-7--5-7--9--
A|-----10---7---9---|-5---7------------------|-----10---7---9---|--------------
E|-0-0----0---0---0-|---0---0----------------|-0-0----0---0---0-|--------------


03:33

E|------------------|-----------------------|-------------------|-----------------
B|------------------|-----------------------|-------------------|-----------------
G|------------------|-----------------------|-------------------|-----------------
D|------------------|-------------------4-5-|-------------------|-----------------
A|-m-m-10-m-7-m-9-m-|-5-m-7-m------3-5-7----|-m-m-10-m-7--mute.-|-m-m-7-mute...-7-
E|-0-0----0---0---0-|---0---0-3-5-7---------|-0-0----0----0-0-0-|-0-0---0-0-0-0---


03:39

E|---------------------------------|-----------8-10-8-10-8-------------
B|----------8-10-8----------8-10-8-|-----------------------------------
G|---------------------------------|-12-8--8-12-----------12-8--8-12-8-
D|12-8--8-12------12-8--8-12-------|-----10-------------------10-------
A|----10--------------10-----------|-----------------------------------
E|---------------------------------|-----------------------------------



E|-----------------------------|----------6-8-6-8-6------------
B|---------6-8-6---------6-8-6-|-------------------------------
G|-----------------------------|-10-7-7-10---------10-7-7-10-7-
D|10-7-7-10-----10-7-7-10------|-----8-----------------8-------
A|----8-------------8----------|-------------------------------
E|-----------------------------|-------------------------------


03:45

E|--------------------------|--------4-6-4-6-4----------|--
B|-------4-8-4-6-4----------|---------------------------|--
G|--------------------------|-8-5-5-8---------8-5-5-8-5-|--
D|8-5-5-8---------8-5-5-8-5-|----6---------------6------|--
A|---6---------------6------|---------------------------|--
E|--------------------------|---------------------------|--



E|--------5-8-5-12-8-------------|-----------------------------10-
B|------------------10-----------|---------------------10-12-13---
G|-9-5-5-9------------9----------|--------------9-11-12-----------
D|----7----------------10--------|-------9-10-12------------------
A|-----------------------12-11-10|9-10-12-------------------------
E|-------------------------------|--------------------------------


03:51
  Find a meaning to your life

E|------------------------------|------------------------------|--
B|-mute.........................|-mute.........................|--
G|----7-7-5-5-7-7---7-7-5-5-7-7-|----7-7-5-5-7-7---7-7-5-5-7-7-|--
D|-5-5-----------5-5------------|-3-3-----------3-3------------|--
A|------------------------------|------------------------------|--
E|------------------------------|------------------------------|--


   No way limit our goals

E|------------------------------|--------------------------------
B|-mute.........................|-mute...........................
G|----7-7-5-5-7-7---7-7-5-5-7-7-|----7-7-5-5-7-7---7-7-5-5-7-7---
D|-5-5-----------5-5------------|-3-3-----------3-3--------------
A|------------------------------|--------------------------------
E|------------------------------|--------------------------------


03:56
    Healing whispers of the        angels    bring    the     Sunrise     again

E|------------------------------|-----------------------------|--------|-----------
B|-mute.........................|-mute........................|--------|-----------
G|----7-7-5-5-7-7---7-7-5-5-7-7-|----7-7-5-5-7-7---7-7-5-5-7-7|--------|-7-----9---
D|-5-5-----------5-5------------|-3-3-----------3-3-----------|-3------|-7-----7---
A|------------------------------|-----------------------------|-1------|-----------
E|------------------------------|-----------------------------|--------|-----------


04:02
New days shines, fallen Angels will arise Nova Era brings the asches back to life

E|------|---------------|-----------|----------|--------------|--------------|-----|--
B|------|---------------|-----------|----------|--------------|--------------|-----|--
G|------|---------------|-----------|----------|--------------|--------------|-----|--
D|-10---|---10----------|--3----5---|---7------|--3------5----|--------------|-8---|-5
A|--8---|----7----------|--1----3---|---5------|--1------3----|---3----------|-6---|-3
E|------|---------------|-----------|----------|--------------|---1----------|-----|--


04:13
All over now sores in pain and awfull lies  Angels    lead you through paradise!

E|-------|------------|---------------|-----|---------|--------|--------
B|-------|------------|---------------|-----|---------|-3------|--------
G|-------|------------|---------------|-----|---------|-0------|--------
D|-12----|--12--------|---5-------7---|-9---|-5-----7-|-0------|-10-----
A|-10----|---9--------|---3-------5---|-7---|-3-----5-|--------|--8-----
E|-------|------------|---------------|-----|---------|-3------|--------


04:24
KIKO:                                                 Nova Era is the passage to your

E|----------|------------|---------|-----------------------------|-12------|---14-----
B|-12-----12|10-12-13--10|12----12-|10-12-13-10-12-13-15-12-13-15|-15------|---17-----
G|---9-12---|------------|--9-12---|-----------------------------|---------|----------
D|----------|------------|---------|-----------------------------|---------|----------
A|----------|------------|---------|-----------------------------|---------|----------
E|----------|------------|---------|-----------------------------|---------|----------

RAFAEL:

E|----------|------------|---------|-----------------------------|--8------|---10-----
B|----------|------10----|---------|------10------10-12----10-12-|-12------|---13-----
G|-12---9-12|11-12---11--|-12-9-12-|11-12---11-12-------12-------|---------|----------
D|----9-----|------------|---9-----|-----------------------------|---------|----------
A|----------|------------|---------|-----------------------------|---------|----------
E|----------|------------|---------|-----------------------------|---------|----------


04:33
                                              And forever you  may find a better time

E|-----------------------------|----------------------------|--------|--------
B|-----------------------------|----------------------------|--------|--------
G|-----------------------------|mute........................|--------|--------
D|-----------------------------|9-9-7-7-5-5---5-5-----------|--5-----|--4-----
A|-5-7mute...5-7mute...-5-7....|-----------9-9---9-9-7-7-5-5|--3-----|--2-----
E|----0-0-0-0---0-0-0-0----0-0-|----------------------------|--------|--------


04:39
                                              Nova Era Brings the Angels back to life

E|-----------------------------|mute........................|--------|--------
B|-----------------------------|-------------------------5-5|--------|--------
G|-----------------------------|------------------5-5-7-7---|--------|--------
D|-----------------------------|-------5-5-7-7-9-9----------|--5-----|--7-----
A|-5-7mute...5-7mute...5-7mute-|7-7-9-9---------------------|--3-----|--5-----
E|----0-0-0-0---0-0-0-0---0-0--|----------------------------|--------|--------


04:44
                                                                                Life!

E|------|----------------------------|------------------------------------------|----
B|-3----|------------12-10-10--10-12-|-13-12-10-------15-13-12--------16-13-----|-17-
G|-0----|-9---9-11-12--------12------|---------12-11-9--------14-12-11-----14-11|----
D|-0----|--9-9-----------------------|------------------------------------------|----
A|------|----------------------------|------------------------------------------|----
E|-3----|----------------------------|------------------------------------------|----


=======================================================================================
Versão 2
-======-

INTRODUÇÃO: experimente descer a afinação da 6ªcorda para Ré (1 tom) e ao
invés de fazer o acorde convencional, faça apenas uma pestana pegando
as cordas mais graves: D,A,E (que agora emitirá o som de Ré).

1ªparte:    F A G A A# A D G A A# C# D
            F A G A A# A D E F A G A A# A C# E

2ªparte: são os mesmos acordes da 1ª estrofe abaixo.


D   D/C#    D
Somehow I know
    C                D
That things are gonna change
    C                 G
New boundaries on the way
             D
Like never were before
G                      D
Find a meaning to your life
G                       D
Healing whispers of the angels
          A#      A
Bring the sunrise again


      F       F/E            A#          C D
      New day shines, fallen angels will arise
  R      C A#         C   F              C
  E   Nova Era brings the ashes back to life
  F   F        F/E             A#       C     D
  R   All over now, all the great and awful lies
  Ã   A#     F     D#
  O   Angels will arise
             D
      Back to life!

Introdução 2ªparte

D     D/D#      D
Fresh winds of hope
    C          D
Has taken us ahead
  C          G
Forever is a place
		    D
You have to keep in mind
   G                D
No way to limit our goals
	G		D
We'll find a reason to believe
	A#  A
Facing Nova Era


 [refrão]

 SOLO

Oh! Come on! Arise!

 SOLO 2
G                      D
Find a meaning to your life
G		    D
No way to limit our goals
G                       D
Healing whispers of the angels
          A#      A
Bring the sunrise again!

F       F/E    	       A#          C D
New day shines, fallen angels will arise
   C A#         C   F             D#    C
Nova Era brings the ashes back to life
G        G/F#          C          D   E
All over now, sores in pain and awful lies
C    D G          F           E
Angels lead you through paradise


     C        D               E
Nova Era is a passage to your mind
    C               B            E
And forever you may find a better time
     C             D              G       E
Nova Era bring the angels back to life... Life!
Texto Colunas
Alterar tom ½ tom ½ tom
afinação acordes na letra esconder tabs mais »

Comentários 31

  • Gabriel Gabriel: Postado em 25/06/2014 21:59

    video aula ?

  • Anderson Anderson: Postado em 13/06/2014 10:35

    Cifra Club, se possível faça a vídeo aula desta musica por favor, obrigado

  • Gabriel Gabriel: Postado em 29/04/2014 21:40

    faz video aula cifra club por favor

  • Paulo Paulo: Postado em 06/04/2014 11:40

    sem querer rebaixar o pessoal do site pq eles são feras tambem , mas eu acho que não tem ninguem pra fazer video aula com a tecnica do kiko

  • lucanaphoenix lucanaphoenix: Postado em 09/11/2013 19:49

    eu e um amg vamos fazer um duo voz(eu) e violão(ele) com algumas musicas do Angra, estamos ensaiando esta tbm...

  • Lucas Lucas: Postado em 31/10/2013 13:23

    video aula pfv

  • silviocasatorta silviocasatorta: Postado em 07/10/2013 20:04

    Video Aula Veyy

  • rfrsdrfrgsdrgfr rfrsdrfrgsdrgfr: Postado em 18/07/2013 17:57

    video aula pelamordideus!!

  • rfrsdrfrgsdrgfr rfrsdrfrgsdrgfr: Postado em 18/07/2013 17:38

    video aula pelamordideus

  • Joao Vitor Joao Vitor: Postado em 03/06/2013 20:42

    video aula!

Exibindo 10 de 31 comentários Mostrar mais ver todos »
Composição: Música: Edu Falaschi, Kiko Loureiro / Letra: Rafael Bittencourt, Felipe Andreoli
Esse não é o compositor? Avise-nos.
  1. Até Você Voltar - Henrique e Juliano Manteve-se 101.987 exibições
  2. Domingo de Manhã - Marcos e Belutti Manteve-se 84.132 exibições
  3. Cuida Bem Dela - Henrique e Juliano Manteve-se 47.153 exibições
  4. Pra Você - Onze:20 Manteve-se 43.878 exibições
  5. Recaídas - Henrique e Juliano Manteve-se 43.832 exibições
  6. Só Os Loucos Sabem - Charlie Brown Jr. Manteve-se 33.118 exibições
  7. Pais e Filhos - Legião Urbana Manteve-se 32.906 exibições
  8. Logo Eu - Jorge e Mateus Manteve-se 32.246 exibições
  9. Raridade - Anderson Freire Manteve-se 28.999 exibições
  10. Evidências - Chitãozinho & Xororó Manteve-se 24.869 exibições
  1. Henrique e Juliano- Manteve-se 272.509 exibições
  2. Jorge e Mateus- Manteve-se 230.712 exibições
  3. Legião Urbana- Manteve-se 206.482 exibições
  4. Charlie Brown Jr.- Manteve-se 158.659 exibições
  5. Fernandinho- Manteve-se 118.134 exibições
  6. Bruno e Marrone- Manteve-se 117.514 exibições
  7. Luan Santana- Manteve-se 103.696 exibições
  8. Marcos e Belutti- Manteve-se 102.284 exibições
  9. Thalles Roberto- Manteve-se 92.012 exibições
  10. The Beatles- Manteve-se 87.687 exibições
Exibir acordes »

Cifras e tabs

Fórum Cifra Club

Aprenda

Cifra Club News

Mais Serviços Cifra Club ID

Studio Sol

©1996 - 2014 Cifra Club · o primeiro, maior e mais acessado do Brasil · 338 mil músicas · 6.3 milhões pessoas cadastradas

publicidade
fechar