Rebirth

Angra

 Angra
os powerchords do começo da musica sao esses:


G--------------------------------------->
D--------------------------------------->
A--0------------------0----------------->
E-----2--3---01---3--------------------->

G-------------------------------->
D--0---0------------------------->
A----------3---0----------------->
E-------------------------------->

G-------------------->
D--0--0-------------->
A---------3---------->
E----------------3--->

parte cantada

G--------------------------------------------------------------------->
D--------------------------------------------------------------------->
A--0--0------5--5-------------3---------0----0----5---5-----8--8--0--0>
E--------------------3---3---------0---------------------------------->

G----------------------------------------------------------------------->
D----------------------------------------------------------------------->
A--0--0------5--5-------------3---------0----0----5---5--/7---8--8--0--0>
E--------------------3---3---------0------------------------------------>


o baixo soh entra a partir q a guitarra com distorçao entra na parte em q canta:
 "but older
NOW!"
G--------------------------|----|--------------->
D--------------------------|-5--|--------------->
A--------------------------|-5--|--------------->
E1-1-1-1-1-1-1-1-1-1-1-1-1-|-3--|-5-5-5-5-5-5--->

 ( o Andreolli faz uns powerchords em algmas apresentaçoes pra dar um peso na musica, mas c 
quiser naum eh necessario fazer)
G>---------------------------------------|
D>---------------------------------------|   
A>---------------------------------------|         
E>-5-5-5-5-5--5-3-3-3-3-3-3--0-0-0-0-0-0-| 

G------------------------------------------------->
D------------------------------------------------->
A--------------------------5-5-5-5-5-5------------>
E5-5-5-5-5-5--5-5-5-5-5-5--------------3-3-3-3-3-3>

>--------------------------------------------------
>--------------------------------------------------
>3-3-3-3-3-3---------------------------------------
>------------0-0-0-0-0-0--1-1-1-1-1-1--3-3-3-3-3-3-
     aki entra no vocal "ooo! minutes around and..." ( o ritmo eh dificil de tranpor pra tab , por isso 
tente pega de ouvido)

-2-|---------------------------------------------->
-2-|---------------------------------------------->
-0-|---------------------------------------------->
---|-111111-1-1-1-1-1-1-1-222222-2-2-2-2-2-2------>

>------------------------------------------------->
>------------------------------------------------->
>444444-4-4-4-4-4-4-444444-555555-5-5-5-5-5-5----->
>------------------------------------------------->

                         ..falling into pieces..
>------------------------------------------------->
>------------------------------------------------->
>555555-666666-6-6-6-6-6-------------------------->
>------------------------7--7-7-7--7-7-7--7-7-7-7->

 rain , brake down...
>-------------------------------------------------|
>-------------------------------------------------|
>-------------------------------------------------|
>0--0-0-0--0-0-0--0-0-0--0-5--5-5-5--5-5-5--5-5-5-|

G|-----------------------------|------------------|
D|-----------------------------|------------------|
A|-4-4-4-4-4-4-4-4-4-4-4-4-4-4-|------------------|
E|-----------------------------|000000-1--000000-1|

"one minute ,forever"
G|---------------------------------------------|
D|---------------------------------------------|
A|-4-4-4-4-2-4-4-4-4-4-2-4---------------------|  
E|---------------------------000000-1--000000-1|2X

"my   vulgar     misery          eeend "
G|------------------------------------------->     
D|------------------------------------------->     
A|------------------------------------------->
E|-5-5-5-5-3-5-5-5-5-5-3-5-333333-3-333333-3->

refrão
>-----------------------------------------------|
>-----------------------------------------------|
>-----------------------------------------------|
>1--1-1-1--1-1-1-1-1-1-1--3-5--5-5-5-5-5-5-5--3-|3x
 
"found my hope ..."
G>-------------------------------------------->
D>-------------------------------------------->
A>---------------------------5--5-5-5-5-5-5-5->
E>1--1-1-1--1-1-1-1-1-1-1--0------------------>
 
"rebirth        of       a         maaan"       
>-------------------------------------------------|
>-------------------------------------------------|
>5--3--3-3-3--3-3-3-3-3-3-3-5--7--7-7-7--7-7-7-7-7|
>-------------------------------------------------|
                      
                        "0oOoOH!"
|---------------2-|-------------------------------|
|---------------2-|-------------------------------|
|---------------0-|-------------------------------|
|-5--2-3--0-1-3---|5--2-3--0-1-3-2-2-2-2-2-2------|

Base do solo do kiko (tom Bm ou D) 4x

G|------------------------------------------------>
D|------------------------------------------------>
A|------------------------------------------------
E|777777777777-333333-222222-000000000000--333333->


>------------|
>------------| 
>--------5---|
>-555555---5-|
 
base do solo do bittencourt (tom C ou Am)         
 2x
G-------------------------------------------------
D-------------------------------------------------|
A-------------------------------------------------|
E5--5-5-5-2--2-3--3-3-3-0--0-1--1-1-3--3-3-5-5-5-5|

  1x
G|------------------------------------------------>
D|------------------------------------------------>
A|5--5-5-5--5-5-5--5-5-5--5-5-3--3-3-3--3-3--8-8-8>
E|------------------------------------------------>

G|------------------------------------------------>
D|------------------------------------------------>
A|7-7-7--5--5-5-5--5-5-5--5-5-5--5-5-3--3-3-3--3-3>
E|------------------------------------------------>

                         ultimas notas do solo
|-----------------------|------------------------->
|-----------------------|------------------------->
|-----------------------|------------------------->
|3--3-3-3--3-3-3--3-3-3-|-5-5-5-5-5-5-5-5-5-5-5-5->

daí pra frente eh so repetir o refrão e pronto


pra ficar legal no final pode-se se repetir essses powerchords

G--------------------------------------->
D--------------------------------------->
A--0------------------0-----------------> 2x
E-----2--3---01---3--------------------->



Comentários 0

Composição: Bittencourt / Loureiro
Esse não é o compositor? Avise-nos.
Contribuição: Banga Correções: fernando »
publicidade
fechar