Pão dos Anjos

Anjos de Resgate

 Anjos de Resgate Compositor: Dalvimar Gallo
Tom: G
		
(intro) G D9 C D9 G D9 C C D9 C


E|-------------------------------------------------------------------------------------
B|-------------------------------------------------------------------------------------
G|-------12--14b-(15)14b(15)~~-14brp12-14-14brp12-14--12-14-12-------12-14-14brp12-15b-
D|-12-14--------------------------------------------14----------12h14------------------
A|-------------------------------------------------------------------------------------
E|-------------------------------------------------------------------------------------



E|------------------------------------15-17-17b-17b-17brp15-17-
B|--------15-17-17b-17rp15-15--15-17---------------------------
G|-15-17-------------------------------------------------------
D|-------------------------------------------------------------
A|-------------------------------------------------------------
E|-------------------------------------------------------------



--15-17-15--14h15p14------------------------------|
17------------------17-15-15/17-19-19h20p19-17~~\-|
--------------------------------------------------|
--------------------------------------------------|
--------------------------------------------------|
--------------------------------------------------|


G                   D/F#
Tão simples assim, tão fácil assim
C         Am            D
Aceite e prove dessa graça
G                        D/F#
O pão sustenta o homem. Jesus sustenta a alma
C         Am                D
Milagre assim não há quem faça
C                                 D
Corpo que era pão Sangue que era vinho
Am   C                 D
Pra eternidade é o caminho

G
Eis o Pão que os anjos comem
       D/F#
transformado em pão do homem
         Em                       C             D
Só os filhos o consomem, Pão pra alma que tem fome
        G                                 D
Aos mortais dando comida dais também o Pão da vida
          Em                           C        D          G  G C D C
Que a família assim nutrida seja um dia reunida lá no céu

G               D/F#
Trigo esmagado Cristo imolado
C       Am            D
Ambos vão tornar-se pão
G                D/F#
Um que perece, outro que permanece
C		D
Para a nossa salvação
C               D     C  		D
Ó Senhor da unidade, tirai de nós a orfandade

G
Eis o Pão que os anjos comem
       D/F#
transformado em pão do homem
         Em                      C             D
Só os filhos o consomem, Pão pra alma que tem fome
        G                                 D/F#
Aos mortais dando comida dais também o Pão da vida
          Em                           C        D/F#       G  G C
Que a família assim nutrida seja um dia reunida lá no céu

G
Eis o Pão que os anjos comem
       D/F#
transformado em pão do homem
         Em                      C             D
Só os filhos o consomem, Pão pra alma que tem fome
        G                                 D/F#
Aos mortais dando comida dais também o Pão da vida
          Em                           C        D          G
Que a família assim nutrida seja um dia reunida lá no céu

(solo base) G D C D

(solo)

E|--------------------------------------------------------------12-14-15b-15-17b-17~-
B|------------------------12--13--15-------------------12-13-15----------------------
G|----------------------12--12--12---------------12-14-------------------------------
D|-5~-4-5-7-5-7/9-7------------------14-14-12-14-------------------------------------
A|------------------9/---------------------------------------------------------------
E|-----------------------------------------------------------------------------------


        G                                 D
Aos mortais dando comida dais também o Pão da vida
          Em                           C        D          G C D C
Que a família assim nutrida seja um dia reunida lá no céu

G                   D                Em
Tão simples assim, tão fácil assim
86.766 exibições

Comentários 0

Composição: Dalvimar Gallo
Esse não é o compositor? Avise-nos.
Contribuição: Tiagocampos Correções: claudio e mais 1 »
Exibir acordes »
publicidade
fechar