Fusca Azul

Anjos Do Hanngar

 Anjos Do Hanngar
Tom: D
		
Intro.: D4, D, D9, D

G	 Bm7	Em	  Em7     Bm7   
Ela me deixou, por causa de um fusca azul, 
C    C9	    G	            D
pequeno de mais para o seu caminhão.
G	   Bm7    Em  Em7     Bm7   
Pobre fusca azul, chorando se foi, 
C       C9	G	      D
pela estrada a fora o fim da solidão.

  Em 	      Bm        C             Bm
Mas eu deixo dela e não troco o meu motor, 
   C         G               D
se ela me quiser vai Ter que ser.

	     G  Bm7  C          C9     G           
Tem que ser eu, ela, dentro do fusca azul, 
     B7   Em 
mas estou só,
    Bm    C             G      D
Sem ela, só eu e o meu fusca azul.	     
             G  Bm7  C          C9     G           
Tem que ser eu, ela, dentro do fusca azul, 
     B7   Em 
mas estou só,
    Bm    C            Cm      G
Sem ela, só eu e o meu fusca azul.
 
Solo (Arion Krause)

  |         G          |          D         |          E         |         F#         |
 A|---------------------------------------------------14--12--10--9h10h9------10-------
 E|3-------3/5---7---8--10---------------10--12----------------------------------------




  |         C          |          G         |          A         |         A          |
 A|------------------------------------------------------------------------------------
 E|8---------8-12--10-8-8/10-----------7-5-3-5/7----------5----------------------------



Alternativa para o solo (Juliano Samuel)

E|------------------------------------------------------------------------|
A|--------------------0---------------------------------------------------|
D|----------------------2-0-----------------------------------------------|
G|------------h0-0h-2-------4-2-0-h2-2-0----------------------------------|
B|-----0-2-3-----------------------------3-2--0---h2-0-0------0-0-0-0-0---|
E|---3------------------------------------------3-------------------------|





Em 	      Bm        C             Bm
Mas eu deixo dela e não troco o meu motor, 
   C         G               D
se ela me quiser vai Ter que ser.

	     G  Bm7  C          C9     G           
Tem que ser eu, ela, dentro do fusca azul, 
     B7   Em 
mas estou só,
    Bm    C             G      D
Sem ela, só eu e o meu fusca azul.	     
             G  Bm7  C          C9     G           
Tem que ser eu, ela, dentro do fusca azul, 
     B7   Em 
mas estou só,
    Bm    C            D
Sem ela, só eu e o meu fusca azul.

Muda de Tom

             A  C#m7  D               A           
Tem que ser eu, ela, dentro do fusca azul, 
 C#7     F#m 
mas estou só,
   C#m    D            Dm      A
Sem ela, só eu e o meu fusca azul.
46.195 exibições

Comentários 0

Composição: Anjos Do Hanngar
Esse não é o compositor? Avise-nos.
Contribuição: sananduvense Correções: aaaaaaaaaa e mais 1 »
Consegui tocarAinda não conseguiram tocar essa música. Seja o primeiro!
    Não consegui tocar
    Exibir acordes »
    publicidade
    fechar