Homem de Nazaré

Antônio Marcos

 Antônio Marcos
Tom: E
		

Intro: E  A  E  A  E  A  D  B7
E|------10-8--------10-8-------10-8---------10-8-------10-8---------10-8----
B|----11-----8----11-----8---11-----8-----11-----8---11-----8-----11-----8--
G|--11----------11----------11----------11----------11----------11----------
D|-9-----------9-----------9-----------9-----------9-----------9------------
A|--------------------------------------------------------------------------
E|--------------------------------------------------------------------------



E|-6-6-6-6--6-6--5-5-5-5--5-5-----------------------------------------------
B|-7-7-7-7--7-7--6-6-6-6--6-6-----------------------------------------------
G|--------------------------------------------------------------------------
D|--------------------------------------------------------------------------
A|--------------------------------------------------------------------------
E|--------------------------------------------------------------------------



E
Mil
     A			   (E)
Novecentos e setenta e três
      A                       (E)
Tanto tempo faz que ele morreu
  A		    (E)
O mundo se modificou
     A			     (B7)...
Mas ninguém jamais o esqueceu

E
E eu
      A                    (E)...
Sou ligado no que ele falou
      A         	    (E)...
Sou parado no que ele deixou
  A                  (E)...
O mundo só será feliz
    A                   (D B7)
Se agente cultivar o amoooor

E
Hey irmão
A		   (E)...
Vamos seguir com fé
A               (E)...
Tudo que ensinou
  A              (B7)...
O homem de nazarééééé

E
Hey irmão
A		   (E)...
Vamos seguir com fé
A               (E)...
Tudo que ensinou
  A              (D B7)...
O homem de nazarééééé

E
Reis
  A                         (E)...
E rainhas que esse mundo viu
     A			(E)...
Todo povo sempre dirigiu
    A                         (E)...
Caminhando em busca de uma luz
      A                 (B7)...
Sob o símbolo de sua cruuuuz

E
E eu
      A                    (E)...
Sou ligado no que ele falou
      A         	    (E)...
Sou parado no que ele deixou
  A                  (E)...
O mundo só será feliz
    A                  (D B7)
Se agente cultivar o amoooor

E
Hey irmão
A		   (E)...
Vamos seguir com fé
A               (E)...
Tudo que ensinou
  A              (B7)...
O homem de nazarééééé

E
Hey irmão
A		   (E)...
Vamos seguir com fé
A               (E)...
Tudo que ensinou
  A                 (D B7)...
O homem de nazarééééé

    F#M
Ele era um rei
                          G#M
Mas foi humilde o tempo inteiro
                       C#M
Ele foi filho de carpinteiro

  F#M              A      E B7
E nasceu em uma manjedoura
    F#M
Não saiu jamais
      G#M          C#M
Muito longe de sua cidade
    F#M
Não cursou nenhuma faculdade
    A           E
Mas na vida ele foi
     (B7)...
Doutooooor

D            A
Ele modificou
          E
O mundo inteiro
D            A
Ele modificou
          E
O mundo inteiro
D            A
Ele modificou
          E
O mundo inteiro
D            A
Ele revolucionou
          (E)...
O mundo inteiro

E        K(batida no tampo)
Hey irmão...
K     K K          KK K
Vamos seguir com fé
K    K   K      KK K
Tudo que ensinou
  K     K  K     2(KK K)
O homen de Nazaré

K   K    K
Hey irmão...
K     K K          KK K
Vamos seguir com fé
K    K   K      KK K
Tudo que ensinou
  K     K  K     2(KK K)
O homem de Nazaré

E
Hey irmão
A		   (E)...
Vamos seguir com fé
A               (E)...
Tudo que ensinou
  A              (B7)...
O homem de nazarééééé

E
Hey irmão...
10.996 exibições

Comentários 0

Composição: Cláudio Fontana
Esse não é o compositor? Avise-nos.
Contribuição: arthurramon
Exibir acordes »
publicidade
fechar