Curtains Close

Arctic Monkeys

 Arctic Monkeys
Tom: G
		
i've basically just completed the tab that was already on here. sorry no solo i dont really play lead...

Riff 1:

E|-3--3--3-3-3--3-/-6-6-6--6-/-8--8--8----|
B|-3--3--3-3-3--3-/-6-6-6--6-/-8--8--8----|
G|-4--4--4-4-4--4-/-7-7-7--7-/-9--9--9----|
D|-5--5--5-5-5--5-/-8-8-8--8-/-10-10-10---|
A|-5--5--5-5-5--5-/-8-8-8--8-/-10-10-10---| x2
E|-3--3--3-3-3--3-/-6-6-6--6-/-8--8--8----|


Riff 2:

E|------------------------------------------------------------|
B|------------------------------------------------------------|
G|-0-3-5--7-7-7-7-7-5-3-0--0-3-5--7-7-7-5-3-0-0-3--0-0-3------|
D|------------------------------------------------------------|
A|------------------------------------------------------------|
E|------------------------------------------------------------|



E|--------------------------------------------------------------|
B|--------------------------------------------------------------|
G|-0-3-5--7-7-7-7-7-5-3-0--0-3-5--7-7-10-7-5-3b-3b-3b-5b-5b-5b--|
D|--------------------------------------------------------------| 
A|--------------------------------------------------------------|
E|--------------------------------------------------------------|


Intro:
Riff 1 x2
Riff 2
Riff 1 x4

Verse:
Riff 1 x4

Chorus:

E|-8----11---3--3--3-3-3--3-|
B|-8----11---3--3--3-3-3--3-|
G|-9----12---4--4--4-4-4--4-|
D|-10---13---5--5--5-5-5--5-|
A|-10---13---5--5--5-5-5--5-| x3
E|-8----11---3--3--3-3-3--3-|



E|-8----11---3--3--3-3-3--7--7--7-7-7--5--5--5-5-5--7--7--7-7-7-|
B|-8----11---3--3--3-3-3--9--9--9-9-9--5--5--5-5-5--7--7--7-7-7-|
G|-9----12---4--4--4-4-4--9--9--9-9-9--5--5--5-5-5--8--8--8-8-8-|
D|-10---13---5--5--5-5-5--9--9--9-9-9--7--7--7-7-7--9--9--9-9-9-|
A|-10---13---5--5--5-5-5--7--7--7-7-7--7--7--7-7-7--9--9--9-9-9-|
E|-8----11---3--3--3-3-3--7--7--7-7-7--5--5--5-5-5--7--7--7-7-7-|


Bridge:
Riff 2

Verse:
Riff 1 x3


E|-3----------------6-6-/-8--8--8--8--|
B|-3----------------6-6-/-8--8--8--8--|
G|-4----------------7-7-/-9--9--9--9--|
D|-5----------------8-8-/-10-10-10-10-|
A|-5----------------8-8-/-10-10-10-10-|
E|-3----------------6-6-/-8--8--8--8--|


Chorus (same as before)

Solo (Rhythm plays Riff 1 x4)

Chorus

E|-8----11---3--3--3-3-3--3-|
B|-8----11---3--3--3-3-3--3-|
G|-9----12---4--4--4-4-4--4-|
D|-10---13---5--5--5-5-5--5-|
A|-10---13---5--5--5-5-5--5-| x3
E|-8----11---3--3--3-3-3--3-|



E|-8----11---3--3--3-3-3--7--7--7-7-7--5--5--5-5-5--7---------3-|
B|-8----11---3--3--3-3-3--9--9--9-9-9--5--5--5-5-5--7---------3-|
G|-9----12---4--4--4-4-4--9--9--9-9-9--5--5--5-5-5--8---------4-|
D|-10---13---5--5--5-5-5--9--9--9-9-9--7--7--7-7-7--9---------5-|
A|-10---13---5--5--5-5-5--7--7--7-7-7--7--7--7-7-7--9---------5-|
E|-8----11---3--3--3-3-3--7--7--7-7-7--5--5--5-5-5--7---------3-|
4.275 exibições

Comentários 0

Consegui tocarAinda não conseguiram tocar essa música. Seja o primeiro!
    Não consegui tocar
    Exibir acordes »
    publicidade
    fechar