Fake Tales Of San Francisco

Arctic Monkeys

 Arctic Monkeys
Tom: G
		
Drum intro

Intro x 2

Guitar 1 with this funky riff


E|--------------------------------------------------------------------------|
B|--------------------------------------------------------------------------|
G|--------------------------------------------------------------------------|
D|-----------------------------------------------------------7--------------|
A|-----5-----5-7-5-----5-----5-7-5-----5-----5-7-5-----5-7/9---9/7-5--------|
E|--7-----7---------7-----7---------7-----7---------7-----------------------|


Guitar 2,  (i think)


E|---7---7----5------7---7----5------7---7----5------7---7------------------|
B|---7---7----5------7---7----5------7---7----5------7---7------------------|
G|--------------------------------------------------------------------------|
D|--------------------------------------------------------------------------|
A|--------------------------------------------------------------------------|
E|--------------------------------------------------------------------------|


verse x 4
Guitar 1 & 2
   Fake Tales....


E|--------------------------------------------------------------------------|
B|--------------------------------------------------------------------------|
G|--------------------------------------------------------------------------|
D|-----------------------------------------------------------7--------------|
A|-----5-----5-7-5-----5-----5-7-5-----5-----5-7-5-----5-7/9---9/7-5--------|
E|--7-----7---------7-----7---------7-----7---------7-----------------------|



Chorus x 3
as guitarras param e deixam o baixo rolar na parte 'kick me out'


A|---------------------------------------------------------------------0-2--|
E|-----------------------------------------------------------------0-3------|


Back to verse x 4
Guitar 1


E|--------------------------------------------------------------------------|
B|--------------------------------------------------------------------------|
G|--------------------------------------------------------------------------|
D|-----------------------------------------------------------7--------------|
A|-----5-----5-7-5-----5-----5-7-5-----5-----5-7-5-----5-7/9---9/7-5--------|
E|--7-----7---------7-----7---------7-----7---------7-----------------------|


verse x 4
Guitar 2


E|---7---7----5------7---7----5------7---7----5------7---7------------------|
B|---7---7----5------7---7----5------7---7----5------7---7------------------|
G|--------------------------------------------------------------------------|
D|--------------------------------------------------------------------------|
A|--------------------------------------------------------------------------|
E|--------------------------------------------------------------------------|


Baixo x 3


A|---------------------------------------------------------------------0-2--|
E|-----------------------------------------------------------------0-3------|


Use Power Chord nesta transicao.

Guitar 1 x 2


E|----------------------------------------------------------------|
B|----------------------------------------------------------------|
G|--------------------------------9999999999999999-----------7-8-9|
D|99999999999999995555555555555555999999999999999999999999999-----|
A|99999999999999995555555555555555777777777777777799999999999-----|
E|77777777777777773333333333333333----------------77777777777-----|


Guitar 2 x 2


E|----------------------------------------------------------------|
B|----------------------------------------------------------------|
G|--------------------------------9999999999999999-----------7-8-9|
D|99999999999999995555555555555555999999999999999999999999999-----|
A|99999999999999995555555555555555777777777777777799999999999-----|
E|77777777777777773333333333333333----------------77777777777-----|



And yeah, I'd love...
Guitar 1 x1


E|----------------------------------------------------------------|
B|----------------------------------------------------------------|
G|--------------------------------9999999999999999----------------|
D|9999999999999999555555555555555599999999999999999999999999999999|
A|9999999999999999555555555555555577777777777777779999999999999999|
E|77777777777777773333333333333333----------------7777777777777777|


Guitar 2 x1


E|----------------------------------------------------------------|
B|----------------------------------------------------------------|
G|----------------------------------------------------------------|
D|9999999999999999555555555555555522222222222222229999999999999999|
A|9999999999999999555555555555555522222222222222229999999999999999|
E|7777777777777777333333333333333300000000000000007777777777777777|



Get off the bandwagon...
Guitar 1 x1


E|----------------------------------------------------------------|
B|----------------------------------------------------------------|
G|--------------------------------9999999999999999----------------|
D|9999999999999999555555555555555599999999999999995555555555555555|
A|9999999999999999555555555555555577777777777777775555555555555555|
E|77777777777777773333333333333333----------------3333333333333333|


Guitar 2 x1


E|----------------------------------------------------------------|
B|----------------------------------------------------------------|
G|----------------------------------------------------------------|
D|9999999999999999555555555555555522222222222222225555555555555555|
A|9999999999999999555555555555555522222222222222225555555555555555|
E|7777777777777777333333333333333300000000000000003333333333333333|


Outro
Guitar 1


E|---7---7----5------7---7----5------7---7----5------7---7----5-------------|
B|---7---7----5------7---7----5------7---7----5------7---7----5-------------|
G|--------------------------------------------------------------------------|
D|--------------------------------------------------------------------------|
A|--------------------------------------------------------------------------|
E|--------------------------------------------------------------------------|





E|---7---7----5------7---7----5------7---7----5------7---7----5-----7---|
B|---7---7----5------7---7----5------7---7----5------7---7----5-----7---|
G|----------------------------------------------------------------------|
D|----------------------------------------------------------------------|
A|----------------------------------------------------------------------|
E|----------------------------------------------------------------------|

Comentários 0

Composição: Arctic Monkeys / Espen Lind / Madonna
Esse não é o compositor? Avise-nos.
Contribuição: sidvicious Correções: ogabrielalves e mais 1 »
Exibir acordes »
publicidade
fechar