Favor de Deus

Arena Louvor

 Arena Louvor
Tom: F
		
Intro 2x: Dm  Bb  F  C  Dm  Bb  C


               Dm      Bb                   F       C
E|--13-12-10--10--10--10--10-13-12-10-10------------|
B|----------13------13------------------13-13-8/10/8|
G|--------------------------------------------------|    2x
D|--------------------------------------------------|
A|--------------------------------------------------|
E|--------------------------------------------------|




               Dm      Bb                   F       C
E|--13-12-10--10--10--10--10-13-12-10-10--------------|
B|----------13------13------------------13-13-15/17/15|
G|----------------------------------------------------|
D|----------------------------------------------------|
A|----------------------------------------------------|
E|----------------------------------------------------|


Dm    C/E  F/A
Filho de Davi
         Bb  F/A G- Bb/F C
Sei que está neste lugar
Dm      C/E    F/A         Bb
Na multidão, clamo teu nome
   Gm          Bb/F      C
o teu favor eu vou alcançar.

     Dm              Bb           F         C
O favor de Deus é o que abre as portas pra mim
      Dm        Bb      C
faz o impossível acontecer
         Dm         Bb
Se estou fraco, me levanta
        F      C
não me abandonará.
       Gm           Bb/A       C
Maravilhoso, Santo, Poderoso Deus.

(repete a música e no segundo refrão sobe um tom)

( Dm  Bb  Em  C  G  D )

     Em              C          G         D
O favor de Deus é o que abre as portas pra mim
      Em        C      D
faz o impossível acontecer
         Em         C
Se estou fraco, me levanta
        G      D
não me abandonará.
       Am           C        D
Maravilhoso, Santo, Poderoso Deus.
33.009 exibições

Comentários 1

Composição: Sabe quem é o compositor? Envie pra gente. Contribuição: Diego Couth Correções: mateus.gomesmedeiros , jardelqueiroz e mais 3 »
Exibir acordes »
publicidade
fechar