O Impossivel Não Existe

Arena Louvor

 Arena Louvor
Tom: F
		
Riff.

E|------------------------------------------------------|
B|-----13-----------------------------------------------|
G|--------14--14h15h14---12-----------------------------|
D|------------------------------------15----------------|
A|------------------------------------------------------|
E|------------------------------------------------------|



Intro: F Bb Dm Bb

F
Chamo a existência o que não posso ver
Dm
Digo a mim mesmo, vai acontecer
      Bb                    Riff.
Buscarei, de todo coração.
F
O meu clamor insistente no altar
Dm
Move o universo ao profetizar
       Bb                     F
Eu sei, o impossível não existe.
Bb                     Dm           C         Bb
Tens, o poder , de curar, quando ouso te tocar.
                     Dm               C     Bb
Se não vejo, passo a ver, o invisível é real.
                         Dm            C
Me levanto, posso andar, sob tua palavra.
Bb                           C
Creio, sim eu creio, no meu Deus.

Riff.

F
Chamo a existência o que não posso ver
Dm
Digo a mim mesmo, vai acontecer
      Bb                    Riff.
Buscarei, de todo coração.
F
O meu clamor insistente no altar
Dm
Move o universo ao profetizar
       Bb                     F
Eu sei, o impossível não existe.
Bb                     Dm           C         Bb
Tens, o poder , de curar, quando ouso te tocar.
                     Dm               C     Bb
Se não vejo, passo a ver, o invisível é real.
                         Dm            C
Me levanto, posso andar, sob tua palavra.
Bb                           C
Creio, sim eu creio, no meu Deus.

Bb                     Dm           C
O impossível, não existe, o impossível não existe
Bb                     Dm           C
O impossível não existe, para mim.
12.101 exibições

Comentários 1

  • deiverson03 deiverson03: Postado em 09/08/2014 14:06

    E|-------------------------------|
    B|13----------------------------|
    G|----14--14h15h14--12-------|
    D|------------------------------15---|

Composição: Arena Louvor
Esse não é o compositor? Avise-nos.
Contribuição: Wesley Rodrigo Correções: Jhonata , deiverson03 e mais 7 »
Exibir acordes »
publicidade
fechar