Som pra Namorar

Armandinho

 Armandinho
Tom: A
		
Solo:


|--------------------------------4h7--4--5~~-------------------
|--------------------3---5---7----------------*^5-7-5-3-5p3-4~~
|----2--2---4---6----------------------------------------------
|--------------------------------------------------------------
|--------------------------------------------------------------
|--------------------------------------------------------------



|--------------------------------4h7--4--5~~----*^7-5-7-----5-5
|--------------------3---5---7----------------------------7----
|----2--2---4---6----------------------------------------------
|--------------------------------------------------------------
|--------------------------------------------------------------
|--------------------------------------------------------------


*Pré-bend


 A   D         E  
Linda como um anjo que caiu do ceu
 A   D         E  
de pele macia e dos olhos cor de mel
 A   D         E  
Linda como um anjo que caiu do ceu
 A   D         E                       D
de pele macia e dos olhos cor de mel

        A           D
Numa noite de luz
      E
tudo era alegria 
    A           D            E 
A tribo fazia o som com a canção nordestina

F#m                 C#m7
   onde estava você quando eu mais procurei 
F#m                       C#m7
   e quando eu menos esperava 
    D
eu encontrei você

   ( A       D               E)
Só sei  que eu quero te  dizer

eu te amo demorei pra encontrar que eu queria

Só sei que eu quero te dizer

eu te amo demorei pra encontrar
Oi Oi Oi Oi Oi Ô!!!

         ( A         D                 E )   
De manhã cedo eu fico de baixo dos lençóis 
espero o telefone tocar pra ouvir um bom dia com a sua voz
Abro a janela e deixo o sol bater
espero o dia inteiro passar pra chegar a noite e ver você

F#m                C#m7
  aonde estava você quando eu mais procurei 
F#m                    C#m7
  e quando eu menos esperava 
        D   
  eu encontrei você

  ( A      D             E )
So sei que eu queru te dizer
eu te amo demorei pra encontrar que eu queria ter
so sei que eu quero te dizer
eu te amo demorei pra encontrar
98.451 exibições

Comentários 0

Consegui tocarAinda não conseguiram tocar essa música. Seja o primeiro!
    Não consegui tocar
    Exibir acordes »
    publicidade
    fechar