94 Hours

As I Lay Dying

 As I Lay Dying
Tom: C
		
Afinação: CGCFAD



D|----------------------------------------------------------------|
A|----------------------------------------------------------------|
F|----------------------------------------------------------------|
C|--------7p0-----5p0----------------------7p0-----5p0-----555-0--| (x4)
G|----8p0-----8p0-----8p0-7h8p7--0~----8p0-----8p0-----8p0-333----|
C|-0-----------------------------0~-------------------------------|




D|----------------------------------------------------------------|
A|----------------------------------------------------------------|
F|----------------------------------------------------------------|
C|----3p0-7p0-3p0-5p0-3p0-2h3p2--0~----3p0-7p0-3p0-5p0-3p0-555-0--| (x4)
G|-------------------------------0~------------------------333----|
C|-------------------------------0~-------------------------------|





D|----------------------------------------------------------------|
A|----------------------------------------------------------------|
F|-7p0-10p0-7p0-9p0-7p0-10p0-7p0-9p0-7p0-10p0-7p0-9p0--5----------|
C|-----------------------------------------------------7-----(5)--| (x1)
G|--------------------------------------------------------0-------|
C|--------------------------------------------------------0-------|

PM                                                        .



D|----------------------------------------------------------------|
A|----------------------------------------------------------------|
F|----------7p0-10p0-7p0-9p0-------------5------------------------|
C|-0-00-00---------------------0000-00---7-----(5)----------------| (x4)
G|-0-00-00---------------------0000-00------0---------------------|
C|-0-00-00---------------------0000-00------0---------------------|

PM . .. ..                     .... ..      .



D|----------------------------------------------------------------|
A|----------------------------------------------------------------|
F|----------------------------------------------------------------|
C|-0-00-00---0-00-00-0--/--0-00-00--0000-00-------0-00-00--0--0--0|
G|-0-00-00---0-00-00-0--/--0-00-00--0000-00-(x7)--0-00-00--0--0--0|
C|-0-00-00---0-00-00-0--/--0-00-00--0000-00-------0-00-00--0--0--0|

PM . .. ..   . .. .. .     . .. ..  .... ..       . .. ..  .  .  .



D|----------------------------------------------------------------|
A|----------------------------------------------------------------|
F|----------------------------------------------------------------|
C|--------7p0-----5p0----------------------7p0-----5p0------------| (x4)
G|----8p0-----8p0-----8p0-7h8p7--5-----8p0-----8p0-----8p0-777-5--|
C|-0--------------------------------------------------------------|



2ª Guitarra

D|----------------------------------------------------------------|
A|----------------------------------------------------------------|
F|------------12-10-9---7--6--------------12-10-9---7--6----------|
C|-0-00-9-10---x-x--x---x--x--0-00--9-10---x-x--x---x--x----------| (x4)
G|-0-00-7-8---10-8--7---5--4--0-00--7-8---10-8--7---5--4----------|
C|-0-00-----------------------0-00--------------------------------|

PM   ..                         ..

1ª Guitarra

D|-------------------------------------------------------------------------|
A|-------------------------------------------------------------------------|
F|-12-10-9-10-9-------------12-10-9-10------------------9h10p9-------------|
C|-------------12-10-9-(x1)-------------12-10-9-10-12-10------12-10-(x4)---|
G|-------------------------------------------------------------------------|
C|-------------------------------------------------------------------------|




D|----------------------------------------------------------------|
A|----------------------------------------------------------------|
F|----------------------------------------------------------------|
C|-0---0---8--10--7-----------------------------------------------| (x1)
G|-0---0---8--10--7-----------------------------------------------|
C|-0---0---8--10--7-----------------------------------------------|




D|--------------------------------------------------------------------|
A|----------------------------------------------------------10--------|
F|--10-9----12-10-9----12-------10-9----12-10-9--12-10-9-------12-10-9|
C|-------10---------10-----(x2)------10------------------10-----------| (x5)
G|--------------------------------------------------------------------|
C|--------------------------------------------------------------------|

Comentários 2

  • judai judai: Postado em 17/06/2013 03:43

    video aula:0

  • doopinho doopinho: Postado em 02/11/2012 17:19

    video aula de uns metalcore que é bom ....

Composição: As I Lay Dying / Georgia Middleman / JD Samson
Esse não é o compositor? Avise-nos.
Contribuição: Eric-cg
Exibir acordes »
publicidade
fechar