I Am The Highway

Audioslave

 Audioslave
Tom: C
		
Intro: Am

F           C        G     Am
Pearls and swine bereft of me
F         C        G        Am
Long and weary my road has been
       F           C Am
I was lost in the cities
  G           C Am
Alone in the hills
    F         C Am
No sorrow or pity
     G         C Am
For leaving I feel

Refrão:
C        G              Dm
  I am not your rolling wheels
            Am
  I am the highway
Ponte:

E|-------------------------------------------|
B|-------------------------------------------|
G|-2-----------------------------------------|
D|---2---------------------------------------|
A|-----0-3-------------5---------------------|
E|-------------3----------------5------------|


C        G             Dm
  I am not your carpet ride
            E
  I am the sky

F            C           G       Am
Friends and liars don't wait for me
      F        C      G     Am
Cause i'll get on all by myself
      F           C Am
I put millions of miles
    G    C Am
Under my heels
    F          C Am
And still too close
    G     C Am
To you I feel

Ponte:
C        G              Dm
  I am not your rolling wheels
            Am
  I am the highway

C        G             Dm
  I am not your carpet ride
            Am
  I am the sky

C        G              Dm
  I am not your blowing wind
            Am
  I am the lightning

C        G             Dm
  I am not your autumn moon
                E
  I am the night... night...
Solo:

      F              C                G              Am
E|-------------------------------|---------------------------------------
B|----------------5-8-5----------|---------------------------------------
G|---5---5----5-7-------7--5-----|---5----5---5--7--5-4------------------
D|-7---7----7----------------7-5-|-7----7---7------------5-7-------5-7---
A|-------------------------------|----------------------------5h7--------
E|-------------------------------|---------------------------------------


      F              C                G              Am
E|-------------------------------|---------------------------------------
B|----------------5-6-5----------|---------------------------------------
G|---5----5---5-7-------7--5-----|---5----5---5-7---12-8---8--12--8---8--
D|-7----7---7----------------7-5-|-7----7---7------------7----------7----
A|-------------------------------|---------------------------------------
E|-------------------------------|---------------------------------------


      F                C       Am     G                C        Am
E|-------8-----------------------|-------8----------------------------8--
B|-10-10---10-10-8--5-8-8-5------|-10-10---10-10-8--5-8-8-10-10~~--10----
G|--------------------------7--5-|---------------------------------------
D|-------------------------------|---------------------------------------
A|-------------------------------|---------------------------------------
E|-------------------------------|---------------------------------------


      F                    C                        G                 Am
E|-12-12-10-10-8-8-7-7-10-10-8-8-7-7-------------------7-7---------------
B|-----------------------------------10-10-8-8-----8-8-----10~~----------
G|---------------------------------------------9-9-----------------------
D|-----------------------------------------------------------------------
A|-----------------------------------------------------------------------
E|-----------------------------------------------------------------------


Ponte:
C        G              Dm
  I am not your rolling wheels
            Am
  I am the highway

C        G             Dm
  I am not your carpet ride
            Am
  I am the sky

C        G              Dm
  I am not your blowing wind
            Am
  I am the lightning

C        G             Dm
  I am not your autumn moon
                E
  I am the night... night...
Texto Colunas
Alterar tom ½ tom ½ tom
afinação acordes na letra esconder tabs mais »

Comentários 13

  • jackbufalobill jackbufalobill: Postado em 01/02/2014 23:13

    ola... tirei o solo ouvindo a musica e o que esta aqui na cifra esta errado, por favor corrija, nao encaixa na musica de forma alguma...

  • guugalopes_ guugalopes_: Postado em 15/10/2013 22:39

    qual é o ritmo? baixo baixo cima cima baixo cima?

    • jackbufalobill jackbufalobill: Postado em 01/02/2014 23:14

      se vc assistir o vídeo vc pega o ritmo.

  • geovani.evangelistadelima geovani.evangelistadelima: Postado em 04/07/2013 11:32

    Para tocar vc fecha os olhos e imagina o ritmo . após isso vc já pode seguir em frente é automático o ritmo vem quando vc ouve a musica prim

  • TeeTz TeeTz: Postado em 03/12/2012 19:57

    na intro, acho melhor fazer com "Am" do que "A9"

  • romulo365 romulo365: Postado em 16/10/2012 01:03

    Alguem sabe o rítimo?

    • asper asper: Postado em 04/01/2013 18:01

      baixo baixo cima cima baixo , cima cima baixo
      tenta tocar junto com o clip q vc vai perceber melhor

    • jackbufalobill jackbufalobill: Postado em 01/02/2014 23:15

      se vc assistir o clipe e prestar atenção vc pega o ritmo, essa musica é muito fácil

  • romulo365 romulo365: Postado em 10/07/2012 01:05

    POW CIFRA CLUB FAZ VIDEO AULAS DAS MUSICAS DA BANDA AUDIOSLAVE POR FAVOR NÉ.

Exibindo 10 de 13 comentários Mostrar mais ver todos »
Composição: B. Comden / Chris Cornell / Pascal Auriat / Steven Russell
Esse não é o compositor? Avise-nos.
Contribuição: Fernando Faé Neves Correções: Lucas Hyury , silva e mais 4 »
  1. Até Você Voltar - Henrique e Juliano Manteve-se 88.408 exibições
  2. Domingo de Manhã - Marcos e Belutti Manteve-se 77.301 exibições
  3. Cuida Bem Dela - Henrique e Juliano Manteve-se 51.654 exibições
  4. Diz Pra Mim - Banda Malta Manteve-se 42.052 exibições
  5. Recaídas - Henrique e Juliano Manteve-se 41.950 exibições
  6. Raridade - Anderson Freire Manteve-se 41.036 exibições
  7. Pra Você - Onze:20 Manteve-se 31.026 exibições
  8. Só Os Loucos Sabem - Charlie Brown Jr. Manteve-se 30.669 exibições
  9. Tudo Que Você Quiser - Luan Santana Manteve-se 29.599 exibições
  10. Cê Que Sabe - Cristiano Araújo Manteve-se 28.626 exibições
  1. Henrique e Juliano- Manteve-se 273.645 exibições
  2. Jorge e Mateus- Manteve-se 220.738 exibições
  3. Legião Urbana- Manteve-se 202.993 exibições
  4. Charlie Brown Jr.- Manteve-se 146.309 exibições
  5. Luan Santana- Manteve-se 118.679 exibições
  6. Fernandinho- Manteve-se 117.963 exibições
  7. Bruno e Marrone- Manteve-se 113.169 exibições
  8. Marcos e Belutti- Manteve-se 95.202 exibições
  9. Thalles Roberto- Manteve-se 91.729 exibições
  10. The Beatles- Manteve-se 89.066 exibições
Exibir acordes »

Cifras e tabs

Fórum Cifra Club

Aprenda

Cifra Club News

Mais Serviços Cifra Club ID

Studio Sol

©1996 - 2014 Cifra Club · o primeiro, maior e mais acessado do Brasil · 341 mil músicas · 6.3 milhões pessoas cadastradas

publicidade
fechar