No Return

Avantasia

 Avantasia
Tom: C#
		
Tune: Half-Step Down 

Note: "*"s are used to represent the same note X times (listen to the 

song) 

Intro 


Gb-----------------|------------------|--------------------|--- 
Db-----------------|------------------|--------------------|--- 
Ab--2*-------------|--2*--------------|--2*---------5---7--|--- 
Eb------3*--5*--2*-|------3*--5*--2*--|--------------------|--- 


Vocals 


Gb------------------------||--- 
Db------------------------||--- 
Ab--------------7*----5*--||--- 
Eb--2*----5*--------------||--- 


Bridge 


Gb-------------------------||--- 
Db-------------------------||--- 
Ab--2*--0*--------------5*-||--- 
Eb----------3*--2*--0*-----||--- 


Into the morning light.... (listen to the song to find out the rhythm) 


Gb--------------||-------|--- 
Db--------------||-------|--- 
Ab-----------5--||---0*--|--- 
Eb--5*----3-----||-------|--- 


Chorus 


Gb-----------------------------|----------------------------|--- 
Db------4*--5*------5*---------|------4*--5*------5*--2*----|--- 
Ab--5*----------5*------2*--0*-|--5*----------5*---------0*-|--- 
Eb-----------------------------|----------------------------|--- 


Repeat everything and then: 

Solo 


Gb---------------------||--- 
Db---------------------||--- 
Ab--2*--------5*-------||--- 
Eb-------3*--------5*--||--- 



Gb-------------------------------|--- 
Db-------------------------------|--- 
Ab-------2*--0*--5*--------------|--- 
Eb--2*---------------3*--0*--5*--|--- 



Gb--------------||-------|--- 
Db--------------||-------|--- 
Ab-----------5--||---0*--|--- 
Eb--5*----3-----||-------|--- 


Repeat Chorus 4 times and then: 


Gb------------------|--- 
Db------------------|--- 
Ab--0--2--4--0---5*-|--- 
Eb------------------|--- 


End.

Comentários 0

Composição: Tobias Sammet
Esse não é o compositor? Avise-nos.
Contribuição: Taino from Hell
Consegui tocarAinda não conseguiram tocar essa música. Seja o primeiro!
    Não consegui tocar
    Exibir acordes »
    publicidade
    fechar