Buried Alive

Avenged Sevenfold

 Avenged Sevenfold
Tom: C
		

E|---------8-------10p8------8-------7-------------------------------------|
B|----/10-----10---------10-------8----8--10---8/10-----5---6p5----5-------|
G|---------------------------------------------------7----7------7---------|
D|-------------------------------------------------------------------------|
A|-----0--------------------------7------------------5---------------------|
E|-----------------------------8--------------------------------------8--7-|



E|----------------------------8-----10p8-----8-------7-----------------------|
B|---5--------------------/10---10--------10------8----8--10--8/10-----------|
G|-5---4--7\5--4h5p4---------------------------------------------------------|
D|-------------------5-------------------------------------------------------|
A|-------------------------0----------------------7--------------------------|
E|-5--------------------------------------------8----------------------------|



E|-------------------------------------------------|
B|---5----6p5------------8--10--9h10p9--7--9--10---|
G|-7---7-------7--9--10----------------------------|
D|-------------------------------------------------|
A|-5-----------5--7--8----------7------------------|
E|-------------------------------------------------|



E|----------------------------------------------------------------------------|
B|---/10-8-10-----------------/10-8-10------------------/10-8-10--------------|
G|-----------\7--5-7-5--------------------\7-5/7-5--------------\7-5-7-5------|
D|---------------------7-5------------------------------------------------7-5-|
A|---/0-----------------------------------\5----------------------------------|
E|-----------\7---------------/8------------------------/0------\7------------|



E|------5--------------|
B|--7-8-7----5--5------|
G|------------5--5-----|
D|---------------------|
A|--5--------3---------|
E|---------------------|



E|----------------------------------------------------------------------------|
B|---/10-8-10-----------------/10-8-10------------------/10-8-10--------------|
G|-----------\7--5-7-5--------------------\7-5/7-5--------------\7-5-7-5------|
D|---------------------7-5------------------------------------------------7-5-|
A|---/0-----------------------------------\5----------------------------------|
E|-----------\7---------------/8------------------------/0------\7------------|



E|---------------------|
B|--7-8-7----5--5------|
G|------------5--5-----|
D|---------------------|
A|--5--------3---------|
E|---------------------|



E|-----------------------------5(harmonic)----------------------------------5(harmonico)------|
B|---------------5---5-----------------------------------5---5--------------------------------|
G|--/5~~----4~~------------2~~--------------/5~~----4~~------------2~~------------------------|
D|------------------------------------------------------------------------------3(harmonico)--|
A|--------------------------------------------------------------------------------------------|
E|---5------3--------1-----------------------5------3--------1--------------------------------|



Guitarra 1 (Distorção)



E|------------------------------------------------------------------------------|
B|-/10--10-10-12-8/5--5--5--6--5--3--1--1/5--/10--10-10-12-8/5-5-5-5-6-6-6-8-10-|
G|------------------------------------------------------------------------------|
D|------------------------------------------------------------------------------|
A|------------------------------------------------------------------------------|
E|------------------------------------------------------------------------------|



E|--------------------12-10-12----12-10-12-13-12-10-----------------|
B|-9-9-9-10-12-10-10-----------13-------------------13-/12-12\8-----|
G|------------------------------------------------------------------|
D|------------------------------------------------------------------|
A|------------------------------------------------------------------|
E|------------------------------------------------------------------|



E|-------12-10-12-------12-10-12-13-15-------12-10---------------|
B|-10-10----------13-10----------------15b17-------13-12-10-9-10-|
G|---------------------------------------------------------------|
D|---------------------------------------------------------------|
A|---------------------------------------------------------------|
E|---------------------------------------------------------------|



Verso Dedilhado:  Am  C  F  E (4x)


E|-----0-------0--------1------0-------|
B|---1--1---1-1--1----1--1----3--------|
G|----2--2---0----0--0-0--0--1---------| X4
D|-----------------23-------2----20----|
A|--------23-----------------------320-|
E|-------------------------------------|


Am                    C
Take the time just to listen

         F                    E
When the voices screaming are much too loud

Am                 C
Take a look in the distance

        F      E
Try and see it all

Am                   C
Chances are that you might find

        F                 E
That we share a common discomfort now

Am                   C
I feel I'm walking a fine line

        F            E
Tell me only if it's real


Pré-Refrão Base: Dm  C  G
                (Dm  C  G  E)

Dm        C     G
Still I'm on my way

G
(On and on it goes)

Dm     C       G E
Vacant hope to take

Guitarra 1:

E|---13~-12~-10~-7-8-10-12-13~-12~-15~-16~*----|
B|---------------------------------------------|
G|---------------------------------------------|
D|---------------------------------------------|
A|---------------------------------------------|
D|---------------------------------------------|


Guitarra 2:

E|---------------------------------------------|
B|---15~-13~-12~-8-10-12-13-15~-13~-12~-13~*---|
G|---------------------------------------------|
D|---------------------------------------------|
A|---------------------------------------------|
E|---------------------------------------------|


Refrão:

A5     E5    F5               (Frase)

Hey! I can't live in here for another day

A5       E5  F5               (Frase)
Darkness has kept the light concealed

E5   D5 F5 E5
Grim as ever

A5      E5 F5                 (Frase)
Hold on to faith as I dig another grave

A5        E5  F5              E5
Meanwhile the mice endure the wheel

E5
Real as ever

E5      D5   F5  E5
And it seems I've been buried alive!

Guitarra Solo:

PM                                                           . .   . .    . .


E|------------------------------------------------------------------------------|
B|------------------------------------------------------------------------------|
G|-2-2-2-----------------------2-2-2-----------------------9-----7-----10-----9-|
D|-2-2-2--2-3-3-3-3------------2-2-2-2-3-3-3-3-------------9-----7-----10-----9-|
A|-0-0-0--2-3-3-3-3-2-2-2-3-5--0-0-0-2-3-3-3-3-2-2-2-3-5---7-7-7-5-5-5-8--8-8-7-|
E|--------0-1-1-1-1------------------0-1-1-1-1----------------------------------|





E|---------------------------------------------------------------------|
B|---------------------------------------------------------------------|
G|-2-2-2----------------------2-2-2------------------------9~----------|
D|-2-2-2--2-3-3-3-3-----------2-2-2-2-3-3-3-3--------------9~----------|
A|-0-0-0--2-3-3-3-3-2-2-2-3-5-0-0-0-2-3-3-3-3-2-2-2-3-5----7~----------|
E|--------0-1-1-1-1-----------------0-1-1-1-1--------------------------|


PM              . .   . .   . .    . .


E|-------------------------------------------------------------------------|
B|-------------------------------------------------------------------------|
G|-9-9-9~-----------9-----7-----10-----9-----------------------------------|
D|-9-9-9~-----------9-----7-----10-----9-----------------------------------|
A|-7-7-7~-------7-7-7-5-5-5-8-8-8--7-7-7-----------------------------------|
E|-------------------------------------------------------------------------|


Pós-Refrão:

Base : Dedilhado do Verso

Guitarra Solo:

E|------------------------------------------------------------------------------|
B|------------------------------------------------------------------------------|
G|------------------------------------------------------------------------------|
D|------------------------------------------------------------------------------|
A|------------------------------------------------------------------------------|
D|------------------------------------------------------------------------------|


Verso Dedilhado:  Am  C  F  E  (4x)


E|-----0-------0--------1------0-------|
B|---1--1---1-1--1----1--1----3--------|
G|----2--2---0----0--0-0--0--1---------| X4
D|-----------------23-------2----20----|
A|-0------23-----------------------320-|
E|-------------------------------------|


  Am                          C
I walk the fields through the fire
       F                   E            Am
Taking steps until I found solid ground
                          C
Followed dreams, reaching higher
            F        E
Couldn't survive the fall

Am                         C
Much has changed since the last time
      F                  E            Am
And I feel a little less certain now
                         C
You know I jumped at the first sign
        F            E
Tell me only if it's real


Pré-Refrão Base:
Dm  C  G
                (Dm  C  G  E)

Dm       C       G
Memories seem to fade
G
(On and on it goes)
Dm      C    G E
Wash my view away

Solo:
Guitarra 1:

E|---13~-12~-10~-7-8--10-12-13~-12~-10~-12~*---|
B|---------------------------------------------|
G|---------------------------------------------|
D|---------------------------------------------|
A|---------------------------------------------|
D|---------------------------------------------|


Guitarra 2:

E|---------------------------------------------|
B|---15~-13~-12~-8-10-12-13-15~-13~-12~-13~*---|
G|---------------------------------------------|
D|---------------------------------------------|
A|---------------------------------------------|
E|---------------------------------------------|


Refrão:
Guitarra Base: A5  E5  F5  E5  F5  G5
              (A5  E5  F5  E5  F5  E5  G5  F5)
              (A5  E5  F5  E5  F5  G5)
              (A5  E5  F5  E5  E5  E5  F5  E5  G5  F5  A5)

A5   E5    F5                   E5     F5 G5
Hey! I can't live in here for another day
A5       E5  F5                E5
Darkness has kept the light concealed
F5   E5 G5 F5
Grim as ever
A5      E5 F5              E5        F5 G5
Hold on to faith as I dig another grave
A5        E5  F5              E5
Meanwhile the mice endure the wheel
F5   E5 G5 F5 E5
Real as ever
        F5      E5     G5  F5
And I'm chained like a slave
E5
Trapped in the dark
E5
Slammed all the locks
E5
Death calls my name
       F5    E5         G5 F5
And it seems I've been buried alive!

Guitarra Solo:

E|---------------------------------------------------------------------|
B|---------------------------------------------------------------------|
G|-2-2-2----------------------2-2-2-----------------------9--7--10--9--|
D|-2-2-2-2-3-33333-2-2-2-3-5--2-2-2-2-3-33333-2-2-2-3-5---9--7--10--9--|
A|-0-0-0-2-3-33333-2-2-2-3-5--0-0-0-2-3-33333-2-2-2-3-5---777555-888777|
D|-------2-3-33333-2-2-2-3-5--------2-3-33333-2-2-2-3-5----------------|

pm                                                         ** **  ** **


E|---------------------------------------------------------------------|
B|---------------------------------------------------------------------|
G|-2-2-2----------------------2-2-2------------------------9-----------|
D|-2-2-2-2-3-33333-2-2-2-3-5--2-2-2-2-3-33333-2-2-2-3-5----9-----------|
A|-0-0-0-2-3-33333-2-2-2-3-5--0-0-0-2-3-33333-2-2-2-3-5--777-----------|
D|-------2-3-33333-2-2-2-3-5--------2-3-33333-2-2-2-3-5----------------|

pm                                                       **


E|--------------------------------------------------------------------------|
B|--------------------------------------------------------------------------|
G|-999----------9---7---10---9---999---------999-----------9---7---10---9---|
D|-999----------9---7---10---9---999---------999-----------9---7---10---9---|
A|-777--------777-555-88 8-777---777---------777---------777-555-88-8-777---|
D|--------------------------------------------------------------------------|

pm            **  **  **   **                            **  **  **   **


Solo:
Guitarra Base:  (A5  C5  D5  G5
                 A5  C5  D5  F5  E5  G5  F5)  2x

Guitarra Solo:

E|--8--8--8-10-12/3-3\5/1-1-4-4-5-7----------------------------------------|
B|-10-10-10-12-13-5-5-6-3-3-5-5-6-8----------------------------------------|
G|-------------------------------------------------------------------------|
D|-------------------------------------------------------------------------|
A|-------------------------------------------------------------------------|
D|-------------------------------------------------------------------------|



E|-17p12---17p12---17p12----17p12----17p12---12-15p12---15p12---15p12------|
B|------13------13-------13-------13-------13--------13------13------13----|
G|-------------------------------------------------------------------------|
D|-------------------------------------------------------------------------|
A|-------------------------------------------------------------------------|
D|-------------------------------------------------------------------------|



E|-15p12----15p12----12-17p13---17p13---17p13----17p13---17p13----13-------|
B|-------13-------13---------15------15-------15------15-------15----------|
G|-------------------------------------------------------------------------|
D|-------------------------------------------------------------------------|
A|-------------------------------------------------------------------------|
D|-------------------------------------------------------------------------|



E|-15p10----15p10----15p10----15p10----15p10----10--17p12----17p12---------|
B|-------12-------12-------12-------12-------12-----------13-------13------|
G|-------------------------------------------------------------------------|
D|-------------------------------------------------------------------------|
A|-------------------------------------------------------------------------|
D|-------------------------------------------------------------------------|



E|-17p12----17p12----17p12----12-15p12----15p12----15p12----15p12----------|
B|-------13-------13-------13----------13-------13-------13-------13-------|
G|-------------------------------------------------------------------------|
D|-------------------------------------------------------------------------|
A|-------------------------------------------------------------------------|
D|-------------------------------------------------------------------------|



E|-15p12----12-17p13----17p13----17p13----17p13----17p13----13-------------|
B|-------13----------15-------15-------15-------15-------15----------------|
G|-------------------------------------------------------------------------|
D|-------------------------------------------------------------------------|
A|-------------------------------------------------------------------------|
D|-------------------------------------------------------------------------|



E|-1617161516171615-19-20-19-15-------15-----------------------------------|
B|------------------------------17--17-------------------------------------|
G|--------------------------------17---------------------------------------|
D|-------------------------------------------------------------------------|
A|-------------------------------------------------------------------------|
D|-------------------------------------------------------------------------|


Guitarra Base:  A5  F5

Guitarra Solo:  Palhetada Rápida!

E|-----8-12/17---12/17-16-----8-12/17-19-20-19\11--------------------------|
B|-/10--------/13---------/10----------------------------------------------|
G|-------------------------------------------------------------------------|
D|-------------------------------------------------------------------------|
A|-------------------------------------------------------------------------|
D|-------------------------------------------------------------------------|



E|-17p12------12-19p12-17p12------12-19p12-17p12------12-19p12-------------|
B|------13--13--------------13--13--------------13--13---------------------|
G|--------14------------------14------------------14-----------------------|
D|-------------------------------------------------------------------------|
A|-------------------------------------------------------------------------|
D|-------------------------------------------------------------------------|


                          Palhetada Rápida!

E|-16p12------12-16p12-------8-12/17\12-13-11-12-----------------------------|
B|------12--12------------10---------------------12-9-10~--------------------|
G|--------13-----------------------------------------------------------------|
D|---------------------------------------------------------------------------|
A|---------------------------------------------------------------------------|
D|---------------------------------------------------------------------------|


Última Parte do Solo

Guitarra Base:  A5  Ab5  G5  F#5  F5
                F5  E5   G5  F5   A5

Guitarra Solo:

E|-12p8------------8h13h8------------8-15b(17)~~~~r15////------------------|
B|-----10--------10------10--------10--------------------------------------|
G|-------9------9----------9------9----------------------------------------|
D|--------10--10------------10--10-----------------------------------------|
A|----------12----------------12-------------------------------------------|
D|-------------------------------------------------------------------------|


Outro:

Guitarra Base:  E5  G5  F#5  F5

                G#5 A5  B5
                A5  B5  C5

E5
Take you down now
E5
Burn it all out
E5
Throw you all around
E5                G5    F#5  F5
Get your fuckin' HANDS OFF ME!

E5
What's it feel like?E5
Took the wrong route
E5
Watch it fall apart
E5                  G5  F#5  F5   E5
Now you're knockin' AT THE WRONG GATE!

G#5         A5      B5
For you to pay the toll
  A5        B5   C5
A price for you alone
G#5       A5          B5
The only deal you'll find
A5          B5         C5
I'll gladly take your soul

E5
While it seems sick
E5
Sober up quick
E5             E5
Psycho lunatic crushing you with
G5     F#5 F5
HANDS OF FATE!

E5
Shame to find out
E5
When it's too late
E5
But you're all the same
E5             G5   F#5 F5 E5
Trapped inside INFERNO AWAITS!

G#5     A5          B5
Evil thoughts can hide
A5        B5        B5
I'll help release the mind
G#5         A5     B5
I'll peel away the skin
A5         B5       C5
Release the dark within

Guitarra Solo:

E|-------------------------------------------------------------------------|
B|-------------------------------------------------------------------------|
G|-------------------------------------------------------------------------|
D|-2----2----2---2----2----2---2----2----2---2----2----2-------------------|
A|-2-22-2-22-2-2-2-22-2-22-2-2-2-22-2-22-2-2-2-22-2-22-2-2-----------------|
D|-2-22-2-22-2-2-2-22-2-22-2-2-2-22-2-22-2-2-2-22-2-22-2-2-----------------|

pm   **   **   *   **   **   *   **   **   *   **   **   *


E|-------------------------------------------------------------------------|
B|-------------------------------------------------------------------------|
G|-------------------------------------------------------------------------|  3x
D|-2----2----2---2----2----2---2----2----2---------------------------------|
A|-2-22-2-22-2-2-2-22-2-22-2-2-2-22-2-22-2-2-------------------------------|
D|-2-22-2-22-2-2-2-22-2-22-2-2-2-22-2-22-2-2-555-444-33--------------------|

pm   **   **   *   **   **   *   **   **   *


E|-------------------------------------------------------------------------|
B|-------------------------------------------------------------------------|
G|-------------------------------------------------------------------------|
D|-------------------------------------------------------------------------|
A|-------------------------------------------------------------------------|
D|-666-777-99-777-999-1010-666-777-99-777-999-1010-------------------------|



E|-------------------------------------------------------------------------|
B|-------------------------------------------------------------------------|
G|-------------------------------------------------------------------------|  2x
D|-2----2----2---2----2----2---2----2----2---------------------------------|
A|-2-22-2-22-2-2-2-22-2-22-2-2-2-22-2-22-2-2-------------------------------|
D|-2-22-2-22-2-2-2-22-2-22-2-2-2-22-2-22-2-2-555-444-33--------------------|

pm   **   **   *   **   **   *   **   **   *


E|-------------------------------------------------------------------------|
B|-------------------------------------------------------------------------|
G|-------------------------------------------------------------------------|
D|-------------------------------------------------------------------------|
A|-------------------------------------------------------------------------|
D|-666-777-99-777-999-1010-666-777-99-777-999-1010-------------------------|


Solo Final:

                Guitarra Base: E
E|-------------------------------------------------------------------------------------|
B|-------------------------------------------------------------------------------------|
G|-------------------------------------------------------------------------------------|
D|-2----2----2---2----2----2---2----2----2---2----2----2---2----2----2---2----2----2---|
A|-2-22-2-22-2-2-2-22-2-22-2-2-2-22-2-22-2-2-2-22-2-22-2-2-2-22-2-22-2-2-2-22-2-22-2-2-|
D|-2-22-2-22-2-2-2-22-2-22-2-2-2-22-2-22-2-2-2-22-2-22-2-2-2-22-2-22-2-2-2-22-2-22-2-2-|

pm   **   **   *   **   **   *   **   **   *   **   **   *   **   **   *   **   **   *

Parte Final:
E5   G5  F#5  G5     E
This is now your life
E5    G5   F#5   G5   E5
Strike you from the light
E5   G5  F#5  G5    E5
This is now your life
E5   G5 F#5   G5 E5
Die, buried alive!


E|-------------------------------------------------------------------------|
B|-------------------------------------------------------------------------|
G|-------------------------------------------------------------------------|
D|-2-5-4-3-2--------------2-5-4-3-2-------------2-5-4-3-2------------------|
A|-2-5-4-3-2--------------2-5-4-3-2-------------2-5-4-3-2------------------|
D|-2-5-4-3-2-222-222-222--2-5-4-3-2-222-222-222-2-5-4-3-2-222-222-222------|

pm           *** *** ***            *** *** ***           *** *** ***


E|-------------------------------------------------------------------------|
B|-------------------------------------------------------------------------|
G|-------------------------------------------------------------------------|
D|-2-5-4-3-2---------------------------------------------------------------|
A|-2-5-4-3-2---------------------------------------------------------------|
D|-2-5-4-3-2-222-222-222---------------------------------------------------|

pm           *** *** ***

Guitarra 1:

E|-------------------------------------------------------------------------|
B|-------------------------------------------------------------------------|
G|-------------------------------------------------------------------------|
D|-2-5-4-3-2--------------2-5-4-3-2----------------------------------------|
A|-2-5-4-3-2--------------2-5-4-3-2----------------------------------------|
D|-2-5-4-3-2-222222222222-2-5-4-3-2-222222222222---------------------------|

pm           ************           ************

Guitarra 2:

E|-------------------------------------------------------------------------|
B|-------------------------------------------------------------------------|
G|-------------------------------------------------------------------------|
D|-------------------------------------------------------------------------|
A|-------------------------------------------------------------------------|
D|-5-9-8-7-5-555555555555-5-9-8-7-5-555555555555---------------------------|

pm           ************           ************

Guitarra 1:

E|-------------------------------------------------------------------------|
B|-------------------------------------------------------------------------|
G|-------------------------------------------------------------------------|
D|-2-5-4-3-2--------------2-5-4-3-2----------------------------------------|
A|-2-5-4-3-2--------------2-5-4-3-2----------------------------------------|
D|-2-5-4-3-2-222222222222-2-5-4-3-2-222222222222---------------------------|

pm           ************           ************

Guitarra 2:

E|-------------------------------------------------------------------------|
B|-------------------------------------------------------------------------|
G|-------------------------------------------------------------------------|
D|-------------------------------------------------------------------------|
A|-------------------------------------------------------------------------|
D|-5-9-8-7-5-555555555555-5-9-8-7-5-555555555555---------------------------|

pm           ************           ************

Guitarra 1:

E|-------------------------------------------------------------------------|
B|-------------------------------------------------------------------------|
G|-------------------------------------------------------------------------|
D|-2-5-4-3-2-------------2-5-4-3-2-----------------------------------------|
A|-2-5-4-3-2-------------2-5-4-3-2-----------------------------------------|
D|-2-5-4-3-2-222-222-222-2-5-4-3-2-----------------------------------------|

pm           *** *** ***

Guitarra 2:

E|-------------------------------------------------------------------------|
B|-------------------------------------------------------------------------|
G|-------------------------------------------------------------------------|
D|-------------------------------------------------------------------------|
A|-------------------------------------------------------------------------|
D|-5-9-8-7-5-555-555-555-5-9-8-7-5-----------------------------------------|

pm           *** *** ***
Texto Colunas
Alterar tom ½ tom ½ tom
afinação acordes na letra esconder tabs mais »

Comentários 57

  • Samuel Samuel: Postado em 27/09/2014 14:13

    Por Favor pessoal ai do CifraClub, Vídeo-Aula para as músicas da A7X, eles têm muitos fãs e nós gostamos de tocar todas as suas músicas.

  • luiz matheus luiz matheus: Postado em 24/09/2014 20:23

    VIDEO AULA !!

  • Arthur Arthur: Postado em 18/12/2013 01:36

    geral só sabe reclamar ¬¬

  • Lucas Lucas: Postado em 28/11/2013 17:58

    Tá um pouquinho errado !

  • simao20slb simao20slb: Postado em 05/10/2013 16:02

    Corrigi uns pequenos erros na introudução

    • Viny2723 Viny2723: Postado em 15/10/2013 23:26

      Ai, essas cifras do inicio estao certinhas mesmo? e pq tava vendo uns videos, em q a introduçao nao tem meio q nada haver com o inicio..

    • Viny2723 Viny2723: Postado em 15/10/2013 23:27

      tem como vc me ajudar? pq sera q e diferente?

  • christofy christofy: Postado em 07/09/2013 18:11

    Em vez de reclamarem tirem de ouvido '-'

    • christofy christofy: Postado em 07/09/2013 18:12

      Se não souberem não reclamem :p

  • marcosgabriel.771902 marcosgabriel.771902: Postado em 04/07/2013 12:34

    ñ tem como toca o inicio ta toda errada a cifra, mas q merda esse cifra club

    • ed willy ed willy: Postado em 28/08/2013 10:47

      o inicio aii n tem nada de errado U.U

    • ed willy ed willy: Postado em 29/08/2013 19:41

      agora aii no refrão ta meio q errado :3

Exibindo 12 de 57 comentários Mostrar mais ver todos »
Composição: Tony Sciuto
Esse não é o compositor? Avise-nos.
Contribuição: kabelo Correções: raphael.santiago.18 , schmidt11 e mais 15 »
  1. Até Você Voltar - Henrique e Juliano Manteve-se 89.068 exibições
  2. Domingo de Manhã - Marcos e Belutti Manteve-se 75.634 exibições
  3. Cuida Bem Dela - Henrique e Juliano Manteve-se 52.032 exibições
  4. Diz Pra Mim - Banda Malta Manteve-se 44.849 exibições
  5. Raridade - Anderson Freire Manteve-se 42.974 exibições
  6. Recaídas - Henrique e Juliano Manteve-se 40.474 exibições
  7. Só Os Loucos Sabem - Charlie Brown Jr. Manteve-se 30.119 exibições
  8. Pra Você - Onze:20 Manteve-se 29.354 exibições
  9. Rude - Magic! Manteve-se 29.325 exibições
  10. Logo Eu - Jorge e Mateus Manteve-se 26.834 exibições
  1. Henrique e Juliano- Manteve-se 274.241 exibições
  2. Jorge e Mateus- Manteve-se 217.156 exibições
  3. Legião Urbana- Manteve-se 196.040 exibições
  4. Charlie Brown Jr.- Manteve-se 144.678 exibições
  5. Fernandinho- Manteve-se 117.224 exibições
  6. Bruno e Marrone- Manteve-se 114.687 exibições
  7. Luan Santana- Manteve-se 111.929 exibições
  8. Marcos e Belutti- Manteve-se 93.495 exibições
  9. Thalles Roberto- Manteve-se 92.673 exibições
  10. Victor e Leo- Manteve-se 91.876 exibições
Exibir acordes »

Cifras e tabs

Fórum Cifra Club

Aprenda

Cifra Club News

Mais Serviços Cifra Club ID

Studio Sol

©1996 - 2014 Cifra Club · o primeiro, maior e mais acessado do Brasil · 341 mil músicas · 6.3 milhões pessoas cadastradas

publicidade
fechar