Seize The Day

Avenged Sevenfold

 Avenged Sevenfold
Tom: F
		
Intro:

 Dm               F5(9)              G
Seize the day or die regretting the time you lost
     C9                 Bb6
It's empty and cold without you here,
          C9            Dm
Too many people to ache over

Segunda Parte:
(Guitarra Base)


   F5  Gb5 G5                 C5
E|-----------------------------------------
B|-----------------------------------------
G|-----------------------------------------
D|-3-3-4---5--5--5--5-5--5-5--10--10--10---
A|-3-3-4---5--5--5--5-5--5-5--10--10--10---
D|-3-3-4---5--5--5--5-5--5-5--10--10--10---

   ↓ ↓ ↓   ↓  ↓  ↓  ↓ ↑  ↑ ↓   ↓   ↓   ↓


                      F5  F/E    D5
E|-----------------------------------------
B|-----------------------------------------
G|-----------------------------------------
D|-------10h12-10----10--10---10\7---------
A|-------10h12-10-----8---7----7\5---------
D|-10/12-----------------------------------

                      ↓   ↓    ↓


   G5                 C5
E|-----------------------------------------
B|-----------------------------------------
G|-----------------------------------------
D|-5--5--5--5-5--5-5--10--10--10-----------
A|-5--5--5--5-5--5-5--10--10--10-----------
D|-5--5--5--5-5--5-5--10--10--10--10/12----

   ↓  ↓  ↓  ↓ ↑  ↑ ↓   ↓   ↓   ↓


               F5
E|-----------------------------------------
B|-----------------------------------------
G|-----------------------------------------
D|-10h12-10---10~~\------------------------
A|-10h12-10----8~~\------------------------
D|-----------------------------------------

               ↓

(Guitarra Solo)


E|-13---12-----------------------------------12b13~~-
B|-----------10---15--------------10b11r11~~---------
G|------------------------10b12~~--------------------
D|---------------------------------------------------
A|---------------------------------------------------
D|---------------------------------------------------



Gm                  C
   I see my vision burn,
                              F
I feel my memories fade with time
    F7M/E             Dm
But I'm too young to worry
Gm                         C9
   These streets we travel on
                            F   F7M/E
Will Undergo our same lost past

Primeira Parte:

   Dm
I found you here,
      Gm                     F
Now please just stay for a while
           C9            Dm
I can move on with you around
               Gm               F            C/E
I hand you my mortal life, but will it be forever?
Arpejos:


   Dm               Gm
E|----------------------3---3-------
B|-----6---6----------3---3---3-----
G|-------7---7------------------3---
D|---7---------7----5---------------
A|-5--------------------------------
D|----------------------------------



   F              C
E|----------------------------------
B|-----6---6------8-----6---5---6p5-
G|---5---5---5------5-----5---5-----
D|--------------------5-------------
A|-8--------------------------------
D|----------------------------------



   Dm               Gm
E|----------------------3---3-------
B|-----6---6----------3---3---3-----
G|-------7---7------------------3---
D|---7---------7----5---------------
A|-5--------------------------------
D|----------------------------------



   F              C
E|----------------------------------
B|-----6---6------8-----------------
G|---5---5---5----5-----------------
D|-------------7--5-----------------
A|-8--------------------------------
D|----------------------------------



Dm        Gm               F
   I'd do anything for a smile,
              C               Dm
Holding you 'til our time is done
                  Gm
We both know the day will come,
    F                C/E
But I don't want to leave you
(Segunda Parte)


   F5  Gb5 G5                 C5
E|-----------------------------------------
B|-----------------------------------------
G|-----------------------------------------
D|-3-3-4---5--5-----5-5--5----5--5--5------
A|-3-3-4---5--5-----5-5--5----3--3--3------
D|-3-3-4---5--5-----5-5--5-----------------

   ↓ ↓ ↓   ↓  ↓     ↑ ↓  ↓    ↓  ↓  ↓


            F5      F/E     D5       Bb5
E|-----------------------------------------
B|-----------------------------------------
G|-----------------------------------------
D|-5/10----10---10-10-10\7--7---7\3--3-----
A|-3/-8-----8----8--7--7\5--5---5\1--1-----
D|-----------------------------------------

   ↓        ↓    ↓  ↓  ↓    ↓   ↓    ↓


Gm                  C
   I see my vision burn,
                              F
I feel my memories fade with time
    F7M/E             Dm
But I'm too young to worry
    Bb
(a melody, a memory, or just one picture)

Primeiro Refrão:

   D5         F5           G5
E|----------------------------------
B|----------------------------------
G|----------------------------------
D|-7--7--7-7/10--10--10-10/12--12\--
A|-5--5--5-5/-8---8---8--8/10--10\--
D|-0--0--0-0------------------------



   C5    Bb5      C5
E|----------------------------------
B|----------------------------------
G|----------------------------------
D|-5--5--3----3/--5--5--------------
A|-3--3--1----1/--3--3----5/8~~\----
D|----------------------------------



 Dm               F5(9)              G
Seize the day or die regretting the time you lost
     C9                 Bb5(9)
It's empty and cold without you here,
          C9            Dm
Too many people to ache over

(Primeira Parte com variação na letra)

 Dm               Gm           F
Newborn life, replacing all of us,
               C               Dm
Changing this fable we live in
           Gm              F              C
No longer needed here so where should we go?

(Arpejo)

Dm           Gm               F
   Will you take a journey tonight,
           C                 Dm
Follow me past the walls of death?
            Gm              F          C
But girl, what if there is no eternal life?

Segunda Parte:
(Guitarra Base)


   F5  Gb5 G5                 C5
E|-----------------------------------------
B|-----------------------------------------
G|-----------------------------------------
D|-3-3-4---5--5-----5-5--5----10--10----10-
A|-3-3-4---5--5-----5-5--5----10--10----10-
D|-3-3-4---5--5-----5-5--5----10--10----10-

   ↓ ↓ ↓   ↓  ↓     ↑ ↓  ↓     ↓   ↓     ↑


              F5       F/E     D5
E|-----------------------------------------
B|-----------------------------------------
G|-----------------------------------------
D|-------10--10----10-10---10--7---7-7--7--
A|-------10---8-----8--7----7--5---5-5--5--
D|-10/12-----------------------------------

              ↓     ↓  ↓    ↓  ↓   ↑ ↓  ↓


    Bb5
E|-----------------------------------------
B|-----------------------------------------
G|-----------------------------------------
D|--8--------------------------------------
A|--8--------------------------------------
D|--8--------------------------------------

    ↓

(Guitarra Solo)


E|-13---12-------------------------------------------
B|-----------10---15---------------------------------
G|---------------------------------------------------
D|---------------------------------------------------
A|---------------------------------------------------
D|---------------------------------------------------



Gm                  C
   I see my vision burn,
                              F
I feel my memories fade with time
    F7M/E             Dm
But I'm too young to worry
    Bb
(a melody, a memory, or just one picture)

Segundo Refrão:

   D5         F5           G5
E|----------------------------------
B|----------------------------------
G|----------------------------------
D|-7--7--7-7/10--10--10-10/12--12\--
A|-5--5--5-5/-8---8---8--8/10--10\--
D|-0--0--0-0------------------------



  C5  Bb5  C5    D5
E|----------------------------------
B|----------------------------------
G|----------------------------------
D|5-5-8-8/-10-10-12-12-----10h12-10-
A|3-3-8-8/-10-10-12-12--------------
D|----8-8/-10-10-12-12-/12----------



   D5         F5           G5
E|----------------------------------
B|----------------------------------
G|----------------------------------
D|-7--7--7-7/10--10--10-10/12--12\--
A|-5--5--5-5/-8---8---8--8/10--10\--
D|-0--0--0-0------------------------



   C5    Bb5      C5
E|----------------------------------
B|----------------------------------
G|----------------------------------
D|-5--5--3----3/--5--5--------------
A|-3--3--1----1/--3--3--------------
D|----------------------------------



 Dm               F5(9)              G
Seize the day or die regretting the time you lost
     C9                 Bb5(9)
It's empty and cold without you here,
          C9            Dm
Too many people to ache over

  Dm              F               G
Trails in life, questions of us existing here,
             C            Bb5(9)
Don't wanna die alone without you here
                 C
Please tell me what we have is real


Solo 4x: F   C   Dm   Bb5(9)
E|-/13-12------15------------------------------------
B|----------13------13-----------------------/17b18~-
G|----------------------12--15-15-15p14--14----------
D|---------------------------------------------------
A|---------------------------------------------------
D|---------------------------------------------------



E|---------------------------------------------------
B|-b18-b18-b18~~---b18-b18-b18b19r17~~--17~~---------
G|---------------------------------------------------
D|---------------------------------------------------
A|---------------------------------------------------
D|---------------------------------------------------



E|---------------------------------------------------
B|-----15--16b18--16b18r16--15----15~~-----------15~-
G|-/17-------------------------17------/14-15-17-----
D|---------------------------------------------------
A|---------------------------------------------------
D|---------------------------------------------------



E|-----------------------18----18-17----18b20~~------
B|-----------------18-15----15-------18--------------
G|-----15----17-15-----------------------------------
D|-/15----15-----------------------------------------
A|---------------------------------------------------
D|---------------------------------------------------



E|-17~~--17-17-17\15--15--15~~--13-15b17r15b17r15----
B|---------------------------------------------------
G|---------------------------------------------------
D|---------------------------------------------------
A|---------------------------------------------------
D|---------------------------------------------------



E|--------10----10----------13-10--------------------
B|-13b15-----13----13b15~~--------13-10-------13-10--
G|--------------------------------------12-10--------
D|---------------------------------------------------
A|---------------------------------------------------
D|---------------------------------------------------



E|---------------------------------------------------
B|---------------------------------------------------
G|-12-10---------------15/17--17/19---19/22~~\-------
D|-------12-10-12~~-x--------------------------------
A|------------------x--13/15--15/17---17/20~~\-------
D|------------------x--------------------------------


                             P.M .

E|----------------13---------------13-17b18r-17~~----
B|----------11-------11---------15-------------------
G|----10-------10-------10/--15----------------------
D|-/8----12------------------------------------------
A|---------------------------------------------------
D|---------------------------------------------------



E|-15b17--15b17r-15p13----13b15--------10-12-13~-10~-
B|---------------------15----------------------------
G|---------------------------------------------------
D|---------------------------------------------------
A|---------------------------------------------------
D|---------------------------------------------------



E|---------------------------------------------------
B|-10~-15~-11-11-11h13-15~-15-15-15\13--13p11--11p10-
G|---------------------------------------------------
D|---------------------------------------------------
A|---------------------------------------------------
D|---------------------------------------------------


                  H.A

E|---------------------------------------------------
B|-10-9-10-9-----------------------------------------
G|------------10--10~~-------------------------------
D|---------------------------------------------------
A|---------------------------------------------------
D|---------------------------------------------------



Terceira Parte:
(Guitarra Base)


   F5                 F/E
E|-----------------------------------------
B|-----------------------------------------
G|-----------------------------------------
D|-10--10--10-10-10---10--10--10-10-10-----
A|--8---8---8--8--8----7---7---7--7--7-----
D|-----------------------------------------



   D5           Bb5
E|-----------------------------------------
B|-----------------------------------------
G|-----------------------------------------
D|-7--7--7-7-7--8--8-----------------8p7---
A|-5--5--5-5-5--8--8----------8----------8-
D|--------------8--8---10/12-----10--------



   F5                 F/E
E|-----------------------------------------
B|-----------------------------------------
G|-----------------------------------------
D|-10--10--10-10-10---10--10--10-10-10-----
A|--8---8---8--8--8----7---7---7--7--7-----
D|-----------------------------------------



   Bb5
E|-----------------------------------------
B|-----------------------------------------
G|-----------------------------------------
D|-8---------------------------------------
A|-8---------------------------------------
D|-8---------------------------------------


(Guitarra Solo)


    F5   F/E               D5
E|---------------------------------------------------
B|---------------------------------------------------
G|-10----9--9--10--10/12\--7~--7/10--10--10--10\7----
D|---------------------------------------------------
A|--8----7--7---8---8/10\--5~--5/-8---8---8---8\5----
D|---------------------------------------------------



             Bb5
E|---------------------------------------------------
B|---------------------------------------------------
G|-7--7--7\--3---3/7--7--7--7\5--5--5---3------------
D|---------------------------------------------------
A|-5--5--5\--1---1/5--5--7--5\3--3--3---1------------
D|---------------------------------------------------



    F5   F/E               Bb5
E|---------------------------------------------------
B|---------------------------------------------------
G|-10----9--9--10--10/12\--7~\---3~------------------
D|---------------------------------------------------
A|--8----7--7---8---8/10\--5~\---1~------------------
D|---------------------------------------------------



F                      C
  So, what if I never hold you,
                   Dm
Or kiss you lips again?
F                     C
  So I never want to leave you
         Bb5(9)
And the memories for us to see

I beg don't leave me

Terceiro Refrão:

   D5         F5           G5
E|----------------------------------
B|----------------------------------
G|----------------------------------
D|-7--7--7-7/10--10--10-10/12--12\--
A|-5--5--5-5/-8---8---8--8/10--10\--
D|-0--0--0-0------------------------



   C5    Bb5    C5
E|----------------------------------
B|----------------------------------
G|----------------------------------
D|-5--5--3--3/--5--5--7--7--7-7-7-7-
A|-3--3--1--1/--3--3--5--5--5-5-5-5-
D|--------------------0--0--0-0-0-0-



   D5         F5           G5
E|----------------------------------
B|----------------------------------
G|----------------------------------
D|-7--7--7-7/10--10--10-10/12--12\--
A|-5--5--5-5/-8---8---8--8/10--10\--
D|-0--0--0-0------------------------



   C5    Bb5    C5
E|----------------------------------
B|----------------------------------
G|----------------------------------
D|-5--5--3--3/--5--5--7--7--7-7-7-7-
A|-3--3--1--1/--3--3--5--5--5-5-5-5-
D|--------------------0--0--0-0-0-0-



Dm                   F5(9)              G
   Seize the day or die regretting the time you lost
     C9                 Bb5(9)
It's empty and cold without you here,
          C9            Dm
Too many people to ache over

  Dm              F               G
Trails in life, questions of us existing here,
             C            Bb5(9)
Don't wanna die alone without you here
                 C              Dm
Please tell me what we have is real


Parte Final: G5  F5  A5  Bb5 (2x)
E|---------------------------------------------------
B|-13b15r13p10--13b15r13b15~-------------------------
G|---------------------------------------------------
D|---------------------------------------------------
A|---------------------------------------------------
D|---------------------------------------------------



E|---------------------------------------------------
B|-\10~~~h11p10h11p10-10-8-10-11-11b13~~-------------
G|---------------------------------------------------
D|---------------------------------------------------
A|---------------------------------------------------
D|---------------------------------------------------



E|---------------------------------------------------
B|-11-10-11-13-13b15~~--/14~-15-17-17b18~~-----------
G|---------------------------------------------------
D|---------------------------------------------------
A|---------------------------------------------------
D|---------------------------------------------------



E|---------------------------------------------------
B|---------------------------------------------------
G|-\14b15r14b15r14b15r14b15--\9b10r9b10r9b10r9~------
D|---------------------------------------------------
A|---------------------------------------------------
D|---------------------------------------------------



E|---------------------------------------------------
B|---------------------------------------------------
G|-9h10b12~~-10--9~~b10r9\7~~------------------------
D|---------------------------------------------------
A|---------------------------------------------------
D|---------------------------------------------------


Tapping 2x:
   T    T    T    T    T    T    T    T    T    T

E|---------------------------------------------------
B|-15p3-15p3-15p3-15p3-15p3-15p3-15p3-15p3-15p3-15p3-
G|---------------------------------------------------
D|---------------------------------------------------
A|---------------------------------------------------
D|---------------------------------------------------


   T    T    T    T    T    T    T    T    T    T

E|---------------------------------------------------
B|-15p3-15p3-18p6-18p6-18p6-18p6-18p6-18p6-18p6-18p6-
G|---------------------------------------------------
D|---------------------------------------------------
A|---------------------------------------------------
D|---------------------------------------------------


   T    T    T    T    T    T    T    T    T    T

E|---------------------------------------------------
B|-18p6-18p6-18p6-18p6-17p5-17p5-17p5-17p5-17p5-17p5-
G|---------------------------------------------------
D|---------------------------------------------------
A|---------------------------------------------------
D|---------------------------------------------------


   T    T    T    T    T    T    T    T    T    T

E|---------------------------------------------------
B|-17p5-17p5-17p5-17p5-17p5-17p5-18p6-18p6-18p6-18p6-
G|---------------------------------------------------
D|---------------------------------------------------
A|---------------------------------------------------
D|---------------------------------------------------


   T    T    T    T    T    T    T    T

E|---------------------------------------------------
B|-18p6-18p6-18p6-18p6-18p6-18p6-18p6-18p6-----------
G|---------------------------------------------------
D|---------------------------------------------------
A|---------------------------------------------------
D|---------------------------------------------------


(Guitarra Base 2 - 2x)


E|---------------------------------------------------
B|---------------------------------------------------
G|-15--15--15--15--15--15--15\-----------------------
D|---------------------------------------------------
A|-13--13--13--13--13--13--13\-----------------------
D|---------------------------------------------------



E|---------------------------------------------------
B|---------------------------------------------------
G|-14--14--14--14--14--14--14--14--------------------
D|---------------------------------------------------
A|-12--12--12--12--12--12--12--12--------------------
D|---------------------------------------------------



E|---------------------------------------------------
B|---------------------------------------------------
G|-14--14--14--14--14--14--14\-----------------------
D|---------------------------------------------------
A|-12--12--12--12--12--12--12\-----------------------
D|---------------------------------------------------



E|---------------------------------------------------
B|---------------------------------------------------
G|-7--7--7--7--7--7--7/------------------------------
D|---------------------------------------------------
A|-5--5--5--5--5--5--5/------------------------------
D|---------------------------------------------------



E|---------------------------------------------------
B|---------------------------------------------------
G|-15--15--15--15--15--15--15\-----------------------
D|---------------------------------------------------
A|-13--13--13--13--13--13--13\-----------------------
D|---------------------------------------------------



E|---------------------------------------------------
B|---------------------------------------------------
G|-14--14--14--14--14--14--14--14--------------------
D|---------------------------------------------------
A|-12--12--12--12--12--12--12--12--------------------
D|---------------------------------------------------



E|---------------------------------------------------
B|---------------------------------------------------
G|-14--14--14--14--14--14--14\-----------------------
D|---------------------------------------------------
A|-12--12--12--12--12--12--12\-----------------------
D|---------------------------------------------------



E|---------------------------------------------------
B|---------------------------------------------------
G|-7/9--9/10--10/12--12/14---------------------------
D|---------------------------------------------------
A|-5/7--7/-8---8/10--10/12---------------------------
D|---------------------------------------------------


(Arpejos)


E|-18p15----------------15-18p15----------------15---
B|-------15----------15----------15----------15------
G|----------15----15----------------15----15---------
D|-------------17----------------------17------------
A|---------------------------------------------------
D|---------------------------------------------------



E|-17p13----------------13-17p13----------------13---
B|-------15----------15----------15----------15------
G|----------14----14----------------14----14---------
D|-------------15----------------------15------------
A|---------------------------------------------------
D|---------------------------------------------------



E|-12p9--------------9-12p9--------------9-----------
B|------10--------10--------10--------10-------------
G|---------9----9--------------9----9----------------
D|-----------11------------------11------------------
A|---------------------------------------------------
D|---------------------------------------------------



E|-13p10----------------10-13p10----10-13/18\--------
B|-------11----------11----------11------------------
G|----------10----10---------------------------------
D|-------------12------------------------------------
A|---------------------------------------------------
D|---------------------------------------------------



E|-18p15----------------15-18p15----------------15---
B|-------15----------15----------15----------15------
G|----------15----15----------------15----15---------
D|-------------17----------------------17------------
A|---------------------------------------------------
D|---------------------------------------------------



E|-17p13----------------13-17p13----------------13---
B|-------15----------15----------15----------15------
G|----------14----14----------------14----14---------
D|-------------15----------------------15------------
A|---------------------------------------------------
D|---------------------------------------------------



E|-12p9--------------9-12p9--------------9-----------
B|------10--------10--------10--------10-------------
G|---------9----9--------------9----9----------------
D|-----------11------------------11------------------
A|---------------------------------------------------
D|---------------------------------------------------



E|-13p10----------------10-13~~----------------------
B|-------11----------11------------------------------
G|----------10----10---------------------------------
D|-------------12------------------------------------
A|---------------------------------------------------
D|---------------------------------------------------


   T    T    T    T    T    T    T    T

E|---------------------------------------------------
B|-18p6-18p6-18p6-18p6-18p6-18p6-18p6-18~~~----------
G|---------------------------------------------------
D|---------------------------------------------------
A|---------------------------------------------------
D|---------------------------------------------------



  G5          F5           A5                 Bb5
(Silence you lost me, no chance for one more day) (4x)

Gm  F    A7    Bb5(9)
I stand here alone
 Gm       F                 A7                Bb5(9)
Falling away from you, no chance to get back home  (2x)
Sobrecarga de audiência
publicidade
Composição: Avenged Sevenfold / Barrett Strong / Marian Gold
Esse não é o compositor? Avise-nos.
Contribuição: Revenge Correções: v.inny , thiaguinhorp e mais 6 »
Exibir acordes »
publicidade
fechar