Elas Ficam Loucas

Aviões do Forró

 Aviões do Forró Compositor: Aviões do Forró
Tom: A#
		
Cm          G#         G
Quando eu começo a dançar...
Solo 1:

E|----------------|
B|----------------|
G|-----4-4-7-7-5--|
D|--5-5-----------|
A|----------------|
E|----------------|


Solo 2:

E|------------------------------------------------|
B|-------4--4-4-----4--4-4-----4--4-4-----4-------|
G|--5-5-5-----5--5-5-----3--3-3-----3--3-3-3h4-5--|
D|------------------------------------------------|
A|------------------------------------------------|
E|------------------------------------------------|


Intro: Cm

Cm                            G#
Eu sou o pagador, sou o namorador
        Eb                     A#
Eu chego no forró, eu nunca ando só
Cm                              G#
Tô sempre acompanhado, tem mulher pra todo lado
         Eb                        A#
Eu não sou de ninguém, me chamam de tarado
Cm                            G#
Eu sou o pagador, sou o namorador
        Eb                     A#
Eu chego no forró, eu nunca ando só
Cm                              G#
Tô sempre acompanhado, tem mulher pra todo lado
         Eb                        A#
Eu não sou de ninguém, me chamam de tarado

Cm         G#        G
Quando eu começo a dançar...
Cm            G#
Elas ficam loucas
Eb             A#
Elas ficam loucas (4x)
Cm                       G#
Ei gatinha vem dançar a pisadinha.
Eb                        A#
Ei gatinha vem dançar a pisadinha.(4x)
15.196 exibições

Comentários 0

Composição: Aviões do Forró
Esse não é o compositor? Avise-nos.
Contribuição: feliperaphael17
Exibir acordes »
publicidade
fechar