Guitarrinha

Aviões do Forró

 Aviões do Forró
Tom: C
		
(Solinho 1)

E|----------------------------------------------------------|
B|----------------------------------------------------------|
G|-------4-5-------4-5-4-5-4----------4----------4---4------|
D|-7-7-7-----7-7-7------------5-5-5-7----5-5-5-7---5---5----|
A|----------------------------------------------------------|
E|----------------------------------------------------------|


(Solinho 2)

E|---------------|
B|---------------|
G|---5---5-------|
D|-7---7---7-5---|
A|---------------|
E|---------------|


(Solinho 3)

E|---------------|
B|---------------|
G|---4---4-------|
D|-5---5---5-7---|
A|---------------|
E|---------------|


Intro: (Solinho 1) 2x

  Am                            G
Se liga na parada, é de primeira linha
                             Am
A galera dançando, só no som da guitarrinha
                                   G
Minha banda é porrada, tem gata bonitinha
                                  Am
E pode balançar, só no som da guitarrinha


A guitarrinha, guitarrinha
(Solinho 2)
Dom dom dom dom dom dom

Guitarrinha, guitarrinha
(Solinho 3)
Dom dom dom dom dom dom

A guitarrinha, guitarrinha
(Solinho 2)
Dom dom dom dom dom dom

Guitarrinha, guitarrinha
(Solinho 3)
Dom dom dom dom dom dom

(Solinho 1)
Dom dom dom dom dom…
Dom dom dom dom dom dom,
Dom dom dom dom dom dom

Dom dom dom dom dom…
Dom dom dom dom dom dom,
Dom dom dom dom dom dom
Am
Olha que a minha banda é boa, é pra tocar no paredão
G
A minha banda é boa, O nome dela é Avião
Am
Olha que a minha banda é boa, é pra tocar no paredão
G
A minha banda é boa, O nome dela é Avião
3.207 exibições

Comentários 0

Exibir acordes »
publicidade
fechar