Tempo Ao Tempo

Aviões do Forró

 Aviões do Forró
Tom: A
		
(intro) A E F#m D (2x)
        D E


E|-4/5--4-----------10---9-------|
B|-4/5--5--5/7--7/9-10--10--10---|
G|---------6/7--------------11---|
D|-------------------------------|
A|-------------------------------|
E|-------------------------------|



E|-4/5--4-----------10-12--------|
B|-4/5--5--5/7--7/9-10-12--------|
G|---------6/7-------------------|
D|-------------------------------|
A|-------------------------------|
E|-------------------------------|


  A9                                           D9
Você já percebeu que quando eu te vejo perco o chão
        A9
Que o simples fato de te ouvir
                    D
me faz perder toda razão

 F#m
Quando você chega
       E                          A
Minha mão transpira, minha mente pira
                     D
Eu já não sei o que fazer
   F#m                     E
Já vi que esse lance tá ficando chato
              A                      D
Pois até meus atos não consigo mais conter

     A                     E
Não ligo se você nem tá ligando
                      D
Nem tão pouco se importando
                D
Mesmo assim vou te dizer

(refrão)
    A
Já dei tempo ao tempo
       E
Mas o tempo não me ajuda
    D
Se tento te esquecer, Só faço te querer
    A
Tá no meu pensamento
      E
Sentimento que não muda
    D
Tô louco pra te ver
    D           A  E D
Só quero amar você
2.669 exibições

Comentários 0

Composição: Sabe quem é o compositor? Envie pra gente. Contribuição: p.s.guitar Correções: p.s.guitar »
Consegui tocarAinda não conseguiram tocar essa música. Seja o primeiro!
    Não consegui tocar
    Exibir acordes »
    publicidade
    fechar